  0
SECTION
  2
HEADER
  9
$ACADVER
  1
AC1015
  9
$ACADMAINTVER
 70
    20
  9
$DWGCODEPAGE
  3
ANSI_949
  9
$INSBASE
 10
0.0
 20
0.0
 30
0.0
  9
$EXTMIN
 10
316.1619926202283
 20
38.54583634133053
 30
0.0
  9
$EXTMAX
 10
396.1619926202284
 20
168.368783247877
 30
0.0
  9
$LIMMIN
 10
0.0
 20
0.0
  9
$LIMMAX
 10
12.0
 20
9.0
  9
$ORTHOMODE
 70
     1
  9
$REGENMODE
 70
     1
  9
$FILLMODE
 70
     1
  9
$QTEXTMODE
 70
     0
  9
$MIRRTEXT
 70
     0
  9
$LTSCALE
 40
1.0
  9
$ATTMODE
 70
     1
  9
$TEXTSIZE
 40
0.2
  9
$TRACEWID
 40
0.05
  9
$TEXTSTYLE
  7
Standard
  9
$CLAYER
  8
CONSTRUCTION
  9
$CELTYPE
  6
ByLayer
  9
$CECOLOR
 62
   256
  9
$CELTSCALE
 40
1.0
  9
$DISPSILH
 70
     0
  9
$DIMSCALE
 40
1.0
  9
$DIMASZ
 40
0.18
  9
$DIMEXO
 40
0.0625
  9
$DIMDLI
 40
0.38
  9
$DIMRND
 40
0.0
  9
$DIMDLE
 40
0.0
  9
$DIMEXE
 40
0.18
  9
$DIMTP
 40
0.0
  9
$DIMTM
 40
0.0
  9
$DIMTXT
 40
0.18
  9
$DIMCEN
 40
0.09
  9
$DIMTSZ
 40
0.0
  9
$DIMTOL
 70
     0
  9
$DIMLIM
 70
     0
  9
$DIMTIH
 70
     1
  9
$DIMTOH
 70
     1
  9
$DIMSE1
 70
     0
  9
$DIMSE2
 70
     0
  9
$DIMTAD
 70
     0
  9
$DIMZIN
 70
     0
  9
$DIMBLK
  1

  9
$DIMASO
 70
     1
  9
$DIMSHO
 70
     1
  9
$DIMPOST
  1

  9
$DIMAPOST
  1

  9
$DIMALT
 70
     0
  9
$DIMALTD
 70
     2
  9
$DIMALTF
 40
25.4
  9
$DIMLFAC
 40
1.0
  9
$DIMTOFL
 70
     0
  9
$DIMTVP
 40
0.0
  9
$DIMTIX
 70
     0
  9
$DIMSOXD
 70
     0
  9
$DIMSAH
 70
     0
  9
$DIMBLK1
  1

  9
$DIMBLK2
  1

  9
$DIMSTYLE
  2
Standard
  9
$DIMCLRD
 70
     0
  9
$DIMCLRE
 70
     0
  9
$DIMCLRT
 70
     0
  9
$DIMTFAC
 40
1.0
  9
$DIMGAP
 40
0.09
  9
$DIMJUST
 70
     0
  9
$DIMSD1
 70
     0
  9
$DIMSD2
 70
     0
  9
$DIMTOLJ
 70
     1
  9
$DIMTZIN
 70
     0
  9
$DIMALTZ
 70
     0
  9
$DIMALTTZ
 70
     0
  9
$DIMUPT
 70
     0
  9
$DIMDEC
 70
     4
  9
$DIMTDEC
 70
     4
  9
$DIMALTU
 70
     2
  9
$DIMALTTD
 70
     2
  9
$DIMTXSTY
  7
Standard
  9
$DIMAUNIT
 70
     0
  9
$DIMADEC
 70
     0
  9
$DIMALTRND
 40
0.0
  9
$DIMAZIN
 70
     0
  9
$DIMDSEP
 70
    46
  9
$DIMATFIT
 70
     3
  9
$DIMFRAC
 70
     0
  9
$DIMLDRBLK
  1

  9
$DIMLUNIT
 70
     2
  9
$DIMLWD
 70
    -2
  9
$DIMLWE
 70
    -2
  9
$DIMTMOVE
 70
     0
  9
$LUNITS
 70
     2
  9
$LUPREC
 70
     4
  9
$SKETCHINC
 40
0.1
  9
$FILLETRAD
 40
0.0
  9
$AUNITS
 70
     0
  9
$AUPREC
 70
     0
  9
$MENU
  1
.
  9
$ELEVATION
 40
0.0
  9
$PELEVATION
 40
0.0
  9
$THICKNESS
 40
0.0
  9
$LIMCHECK
 70
     0
  9
$CHAMFERA
 40
0.0
  9
$CHAMFERB
 40
0.0
  9
$CHAMFERC
 40
0.0
  9
$CHAMFERD
 40
0.0
  9
$SKPOLY
 70
     0
  9
$TDCREATE
 40
2455189.722080799
  9
$TDUCREATE
 40
2455189.347080799
  9
$TDUPDATE
 40
2455190.501168067
  9
$TDUUPDATE
 40
2455190.126168067
  9
$TDINDWG
 40
0.0530629745
  9
$TDUSRTIMER
 40
0.0530589931
  9
$USRTIMER
 70
     1
  9
$ANGBASE
 50
0.0
  9
$ANGDIR
 70
     0
  9
$PDMODE
 70
     0
  9
$PDSIZE
 40
0.0
  9
$PLINEWID
 40
0.0
  9
$SPLFRAME
 70
     0
  9
$SPLINETYPE
 70
     6
  9
$SPLINESEGS
 70
     8
  9
$HANDSEED
  5
87C
  9
$SURFTAB1
 70
     6
  9
$SURFTAB2
 70
     6
  9
$SURFTYPE
 70
     6
  9
$SURFU
 70
     6
  9
$SURFV
 70
     6
  9
$UCSBASE
  2

  9
$UCSNAME
  2

  9
$UCSORG
 10
0.0
 20
0.0
 30
0.0
  9
$UCSXDIR
 10
1.0
 20
0.0
 30
0.0
  9
$UCSYDIR
 10
0.0
 20
1.0
 30
0.0
  9
$UCSORTHOREF
  2

  9
$UCSORTHOVIEW
 70
     0
  9
$UCSORGTOP
 10
0.0
 20
0.0
 30
0.0
  9
$UCSORGBOTTOM
 10
0.0
 20
0.0
 30
0.0
  9
$UCSORGLEFT
 10
0.0
 20
0.0
 30
0.0
  9
$UCSORGRIGHT
 10
0.0
 20
0.0
 30
0.0
  9
$UCSORGFRONT
 10
0.0
 20
0.0
 30
0.0
  9
$UCSORGBACK
 10
0.0
 20
0.0
 30
0.0
  9
$PUCSBASE
  2

  9
$PUCSNAME
  2

  9
$PUCSORG
 10
0.0
 20
0.0
 30
0.0
  9
$PUCSXDIR
 10
1.0
 20
0.0
 30
0.0
  9
$PUCSYDIR
 10
0.0
 20
1.0
 30
0.0
  9
$PUCSORTHOREF
  2

  9
$PUCSORTHOVIEW
 70
     0
  9
$PUCSORGTOP
 10
0.0
 20
0.0
 30
0.0
  9
$PUCSORGBOTTOM
 10
0.0
 20
0.0
 30
0.0
  9
$PUCSORGLEFT
 10
0.0
 20
0.0
 30
0.0
  9
$PUCSORGRIGHT
 10
0.0
 20
0.0
 30
0.0
  9
$PUCSORGFRONT
 10
0.0
 20
0.0
 30
0.0
  9
$PUCSORGBACK
 10
0.0
 20
0.0
 30
0.0
  9
$USERI1
 70
     0
  9
$USERI2
 70
     0
  9
$USERI3
 70
     0
  9
$USERI4
 70
     0
  9
$USERI5
 70
     0
  9
$USERR1
 40
0.0
  9
$USERR2
 40
0.0
  9
$USERR3
 40
0.0
  9
$USERR4
 40
0.0
  9
$USERR5
 40
0.0
  9
$WORLDVIEW
 70
     1
  9
$SHADEDGE
 70
     3
  9
$SHADEDIF
 70
    70
  9
$TILEMODE
 70
     1
  9
$MAXACTVP
 70
    64
  9
$PINSBASE
 10
0.0
 20
0.0
 30
0.0
  9
$PLIMCHECK
 70
     0
  9
$PEXTMIN
 10
1.000000000000000E+20
 20
1.000000000000000E+20
 30
1.000000000000000E+20
  9
$PEXTMAX
 10
-1.000000000000000E+20
 20
-1.000000000000000E+20
 30
-1.000000000000000E+20
  9
$PLIMMIN
 10
0.0
 20
0.0
  9
$PLIMMAX
 10
12.0
 20
9.0
  9
$UNITMODE
 70
     0
  9
$VISRETAIN
 70
     1
  9
$PLINEGEN
 70
     0
  9
$PSLTSCALE
 70
     1
  9
$TREEDEPTH
 70
  3020
  9
$CMLSTYLE
  2
Standard
  9
$CMLJUST
 70
     0
  9
$CMLSCALE
 40
1.0
  9
$PROXYGRAPHICS
 70
     1
  9
$MEASUREMENT
 70
     0
  9
$CELWEIGHT
370
    -1
  9
$ENDCAPS
280
     0
  9
$JOINSTYLE
280
     0
  9
$LWDISPLAY
290
     0
  9
$INSUNITS
 70
     0
  9
$HYPERLINKBASE
  1

  9
$STYLESHEET
  1

  9
$XEDIT
290
     1
  9
$CEPSNTYPE
380
     0
  9
$PSTYLEMODE
290
     1
  9
$FINGERPRINTGUID
  2
{661902D5-8984-492D-9002-68F71315A186}
  9
$VERSIONGUID
  2
{36DB849C-93FD-4CE9-9F83-81EB816E921A}
  9
$EXTNAMES
290
     1
  9
$PSVPSCALE
 40
0.0
  9
$OLESTARTUP
290
     0
  0
ENDSEC
  0
SECTION
  2
CLASSES
  0
CLASS
  1
ACDBDICTIONARYWDFLT
  2
AcDbDictionaryWithDefault
  3
ObjectDBX Classes
 90
        0
280
     0
281
     0
  0
CLASS
  1
MATERIAL
  2
AcDbMaterial
  3
ObjectDBX Classes
 90
     1153
280
     0
281
     0
  0
CLASS
  1
VISUALSTYLE
  2
AcDbVisualStyle
  3
ObjectDBX Classes
 90
     4095
280
     0
281
     0
  0
CLASS
  1
SCALE
  2
AcDbScale
  3
ObjectDBX Classes
 90
     1153
280
     0
281
     0
  0
CLASS
  1
TABLESTYLE
  2
AcDbTableStyle
  3
ObjectDBX Classes
 90
     4095
280
     0
281
     0
  0
CLASS
  1
MLEADERSTYLE
  2
AcDbMLeaderStyle
  3
ACDB_MLEADERSTYLE_CLASS
 90
     4095
280
     0
281
     0
  0
CLASS
  1
SORTENTSTABLE
  2
AcDbSortentsTable
  3
ObjectDBX Classes
 90
        0
280
     0
281
     0
  0
CLASS
  1
CELLSTYLEMAP
  2
AcDbCellStyleMap
  3
ObjectDBX Classes
 90
     1152
280
     0
281
     0
  0
CLASS
  1
DICTIONARYVAR
  2
AcDbDictionaryVar
  3
ObjectDBX Classes
 90
        0
280
     0
281
     0
  0
CLASS
  1
ACDBPLACEHOLDER
  2
AcDbPlaceHolder
  3
ObjectDBX Classes
 90
        0
280
     0
281
     0
  0
CLASS
  1
LAYOUT
  2
AcDbLayout
  3
ObjectDBX Classes
 90
        0
280
     0
281
     0
  0
ENDSEC
  0
SECTION
  2
TABLES
  0
TABLE
  2
VPORT
  5
8
330
0
100
AcDbSymbolTable
 70
     1
  0
VPORT
  5
70E
330
8
100
AcDbSymbolTableRecord
100
AcDbViewportTableRecord
  2
*Active
 70
     0
 10
0.0
 20
0.0
 11
1.0
 21
1.0
 12
355.993213802479
 22
107.1949953449842
 13
0.0
 23
0.0
 14
1.0
 24
1.0
 15
0.0
 25
0.0
 16
0.0
 26
0.0
 36
1.0
 17
0.0
 27
0.0
 37
0.0
 40
126.8811311088912
 41
2.073699421965317
 42
50.0
 43
0.0
 44
0.0
 50
0.0
 51
0.0
 71
     0
 72
  1000
 73
     1
 74
     3
 75
     0
 76
     0
 77
     0
 78
     0
281
     0
 65
     1
110
0.0
120
0.0
130
0.0
111
1.0
121
0.0
131
0.0
112
0.0
122
1.0
132
0.0
 79
     0
146
0.0
  0
ENDTAB
  0
TABLE
  2
LTYPE
  5
5
330
0
100
AcDbSymbolTable
 70
     6
  0
LTYPE
  5
62
330
5
100
AcDbSymbolTableRecord
100
AcDbLinetypeTableRecord
  2
ByBlock
 70
     0
  3

 72
    65
 73
     0
 40
0.0
  0
LTYPE
  5
63
330
5
100
AcDbSymbolTableRecord
100
AcDbLinetypeTableRecord
  2
ByLayer
 70
     0
  3

 72
    65
 73
     0
 40
0.0
  0
LTYPE
  5
64
330
5
100
AcDbSymbolTableRecord
100
AcDbLinetypeTableRecord
  2
Continuous
 70
     0
  3
Solid line
 72
    65
 73
     0
 40
0.0
  0
LTYPE
  5
842
330
5
100
AcDbSymbolTableRecord
100
AcDbLinetypeTableRecord
  2
DOT
 70
     0
  3
Dot . . . . . . . . . . . . . . . . . . . . . .
 72
    65
 73
     2
 40
0.25
 49
0.0
 74
     0
 49
-0.25
 74
     0
  0
LTYPE
  5
865
330
5
100
AcDbSymbolTableRecord
100
AcDbLinetypeTableRecord
  2
DOT2
 70
     0
  3
Dot (.5x) ........................................
 72
    65
 73
     2
 40
0.125
 49
0.0
 74
     0
 49
-0.125
 74
     0
  0
LTYPE
  5
868
330
5
100
AcDbSymbolTableRecord
100
AcDbLinetypeTableRecord
  2
DASHED2
 70
     0
  3
Dashed (.5x) _ _ _ _ _ _ _ _ _ _ _ _ _ _ _ _ _
 72
    65
 73
     2
 40
0.375
 49
0.25
 74
     0
 49
-0.125
 74
     0
  0
LTYPE
  5
86B
330
5
100
AcDbSymbolTableRecord
100
AcDbLinetypeTableRecord
  2
DASHEDX2
 70
     0
  3
Dashed (2x) ____  ____  ____  ____  ____  ___
 72
    65
 73
     2
 40
1.5
 49
1.0
 74
     0
 49
-0.5
 74
     0
  0
ENDTAB
  0
TABLE
  2
LAYER
  5
2
102
{ACAD_XDICTIONARY
360
828
102
}
330
0
100
AcDbSymbolTable
 70
     7
  0
LAYER
  5
5C
102
{ACAD_XDICTIONARY
360
78B
102
}
330
2
100
AcDbSymbolTableRecord
100
AcDbLayerTableRecord
  2
0
 70
     0
 62
     7
  6
Continuous
370
    -3
390
F
  0
LAYER
  5
78
102
{ACAD_XDICTIONARY
360
78D
102
}
330
2
100
AcDbSymbolTableRecord
100
AcDbLayerTableRecord
  2
외각
 70
     0
 62
     7
  6
Continuous
370
    -3
390
F
  0
LAYER
  5
81
102
{ACAD_XDICTIONARY
360
78F
102
}
330
2
100
AcDbSymbolTableRecord
100
AcDbLayerTableRecord
  2
구멍
 70
     0
 62
     2
  6
Continuous
370
    -3
390
F
  0
LAYER
  5
83
102
{ACAD_XDICTIONARY
360
791
102
}
330
2
100
AcDbSymbolTableRecord
100
AcDbLayerTableRecord
  2
CONSTRUCTION
 70
     0
 62
     6
  6
DASHEDX2
370
    -3
390
F
  0
LAYER
  5
91
102
{ACAD_XDICTIONARY
360
793
102
}
330
2
100
AcDbSymbolTableRecord
100
AcDbLayerTableRecord
  2
깊이_3_1MM
 70
     0
 62
     3
  6
Continuous
370
    -3
390
F
  0
LAYER
  5
70A
102
{ACAD_XDICTIONARY
360
799
102
}
330
2
100
AcDbSymbolTableRecord
100
AcDbLayerTableRecord
  2
바깥쪽
 70
     0
 62
     7
  6
Continuous
370
    -3
390
F
  0
LAYER
  5
82F
330
2
100
AcDbSymbolTableRecord
100
AcDbLayerTableRecord
  2
클립
 70
     0
 62
     4
  6
Continuous
370
    -3
390
F
1001
AcAecLayerStandard
1000

1000

  0
ENDTAB
  0
TABLE
  2
STYLE
  5
3
330
0
100
AcDbSymbolTable
 70
     3
  0
STYLE
  5
5D
330
3
100
AcDbSymbolTableRecord
100
AcDbTextStyleTableRecord
  2
Standard
 70
     0
 40
0.0
 41
1.0
 50
0.0
 71
     0
 42
0.2
  3
txt
  4

  0
STYLE
  5
61
330
3
100
AcDbSymbolTableRecord
100
AcDbTextStyleTableRecord
  2
Annotative
 70
     0
 40
0.0
 41
1.0
 50
0.0
 71
     0
 42
0.2
  3

  4

1001
AcadAnnotative
1000
AnnotativeData
1002
{
1070
     1
1070
     1
1002
}
  0
STYLE
  5
864
330
3
100
AcDbSymbolTableRecord
100
AcDbTextStyleTableRecord
  2

 70
     1
 40
0.0
 41
1.0
 50
0.0
 71
     0
 42
0.2
  3
ltypeshp.shx
  4

  0
ENDTAB
  0
TABLE
  2
VIEW
  5
6
330
0
100
AcDbSymbolTable
 70
     0
  0
ENDTAB
  0
TABLE
  2
UCS
  5
7
330
0
100
AcDbSymbolTable
 70
     0
  0
ENDTAB
  0
TABLE
  2
APPID
  5
9
330
0
100
AcDbSymbolTable
 70
     5
  0
APPID
  5
5E
330
9
100
AcDbSymbolTableRecord
100
AcDbRegAppTableRecord
  2
ACAD
 70
     0
  0
APPID
  5
65
330
9
100
AcDbSymbolTableRecord
100
AcDbRegAppTableRecord
  2
AcadAnnotative
 70
     0
  0
APPID
  5
6F
330
9
100
AcDbSymbolTableRecord
100
AcDbRegAppTableRecord
  2
ACAD_MLEADERVER
 70
     0
  0
APPID
  5
710
330
9
100
AcDbSymbolTableRecord
100
AcDbRegAppTableRecord
  2
ACAD_EXEMPT_FROM_CAD_STANDARDS
 70
     0
  0
APPID
  5
830
330
9
100
AcDbSymbolTableRecord
100
AcDbRegAppTableRecord
  2
AcAecLayerStandard
 70
     0
  0
ENDTAB
  0
TABLE
  2
DIMSTYLE
  5
A
330
0
100
AcDbSymbolTable
 70
     3
100
AcDbDimStyleTable
 71
     1
340
5F
  0
DIMSTYLE
105
5F
330
A
100
AcDbSymbolTableRecord
100
AcDbDimStyleTableRecord
  2
Standard
 70
     0
340
5D
  0
DIMSTYLE
105
60
330
A
100
AcDbSymbolTableRecord
100
AcDbDimStyleTableRecord
  2
Annotative
 70
     0
340
5D
1001
AcadAnnotative
1000
AnnotativeData
1002
{
1070
     1
1070
     1
1002
}
  0
ENDTAB
  0
TABLE
  2
BLOCK_RECORD
  5
1
330
0
100
AcDbSymbolTable
 70
     1
  0
BLOCK_RECORD
  5
74
102
{ACAD_XDICTIONARY
360
736
102
}
330
1
100
AcDbSymbolTableRecord
100
AcDbBlockTableRecord
  2
*Model_Space
340
77
  0
BLOCK_RECORD
  5
70
330
1
100
AcDbSymbolTableRecord
100
AcDbBlockTableRecord
  2
*Paper_Space
340
73
  0
ENDTAB
  0
ENDSEC
  0
SECTION
  2
BLOCKS
  0
BLOCK
  5
75
330
74
100
AcDbEntity
  8
0
100
AcDbBlockBegin
  2
*Model_Space
 70
     0
 10
0.0
 20
0.0
 30
0.0
  3
*Model_Space
  1

  0
ENDBLK
  5
76
330
74
100
AcDbEntity
  8
0
100
AcDbBlockEnd
  0
BLOCK
  5
71
330
70
100
AcDbEntity
 67
     1
  8
0
100
AcDbBlockBegin
  2
*Paper_Space
 70
     0
 10
0.0
 20
0.0
 30
0.0
  3
*Paper_Space
  1

  0
ENDBLK
  5
72
330
70
100
AcDbEntity
 67
     1
  8
0
100
AcDbBlockEnd
  0
ENDSEC
  0
SECTION
  2
ENTITIES
  0
LINE
  5
79
330
74
100
AcDbEntity
  8
외각
100
AcDbLine
 10
396.1619926202284
 20
166.368783247877
 30
0.0
 11
396.1619926202284
 21
158.368783247877
 31
0.0
  0
ARC
  5
7A
330
74
100
AcDbEntity
  8
외각
100
AcDbCircle
 10
394.1619926202284
 20
158.368783247877
 30
0.0
 40
2.0
100
AcDbArc
 50
270.0
 51
0.0
  0
LINE
  5
7B
330
74
100
AcDbEntity
  8
외각
100
AcDbLine
 10
394.1619926202284
 20
156.368783247877
 30
0.0
 11
318.1619926202283
 21
156.368783247877
 31
0.0
  0
ARC
  5
7C
330
74
100
AcDbEntity
  8
외각
100
AcDbCircle
 10
318.1619926202283
 20
158.368783247877
 30
0.0
 40
2.0
100
AcDbArc
 50
180.0
 51
270.0
  0
LINE
  5
7D
330
74
100
AcDbEntity
  8
외각
100
AcDbLine
 10
316.1619926202283
 20
158.368783247877
 30
0.0
 11
316.1619926202283
 21
166.368783247877
 31
0.0
  0
ARC
  5
7E
330
74
100
AcDbEntity
  8
외각
100
AcDbCircle
 10
318.1619926202283
 20
166.368783247877
 30
0.0
 40
2.0
100
AcDbArc
 50
90.0
 51
180.0
  0
LINE
  5
7F
330
74
100
AcDbEntity
  8
외각
100
AcDbLine
 10
318.1619926202283
 20
168.368783247877
 30
0.0
 11
394.1619926202284
 21
168.368783247877
 31
0.0
  0
ARC
  5
80
330
74
100
AcDbEntity
  8
외각
100
AcDbCircle
 10
394.1619926202284
 20
166.368783247877
 30
0.0
 40
2.0
100
AcDbArc
 50
0.0
 51
90.0
  0
CIRCLE
  5
82
330
74
100
AcDbEntity
  8
구멍
100
AcDbCircle
 10
337.5304432371738
 20
114.368783247877
 30
0.0
 40
3.099999904632568
  0
CIRCLE
  5
86
330
74
100
AcDbEntity
  8
구멍
100
AcDbCircle
 10
322.5304432371738
 20
114.368783247877
 30
0.0
 40
2.0
  0
ARC
  5
87
330
74
100
AcDbEntity
  8
외각
100
AcDbCircle
 10
356.8988938541195
 20
118.368783247877
 30
0.0
 40
2.0
100
AcDbArc
 50
0.0
 51
90.0
  0
LINE
  5
88
330
74
100
AcDbEntity
  8
외각
100
AcDbLine
 10
358.8988938541195
 20
118.368783247877
 30
0.0
 11
358.8988938541195
 21
110.368783247877
 31
0.0
  0
ARC
  5
89
330
74
100
AcDbEntity
  8
외각
100
AcDbCircle
 10
356.8988938541195
 20
110.368783247877
 30
0.0
 40
2.0
100
AcDbArc
 50
270.0
 51
0.0
  0
LINE
  5
8A
330
74
100
AcDbEntity
  8
외각
100
AcDbLine
 10
356.8988938541195
 20
108.368783247877
 30
0.0
 11
318.1619926202283
 21
108.368783247877
 31
0.0
  0
ARC
  5
8B
330
74
100
AcDbEntity
  8
외각
100
AcDbCircle
 10
318.1619926202283
 20
110.368783247877
 30
0.0
 40
2.0
100
AcDbArc
 50
180.0
 51
270.0
  0
LINE
  5
8C
330
74
100
AcDbEntity
  8
외각
100
AcDbLine
 10
316.1619926202283
 20
110.368783247877
 30
0.0
 11
316.1619926202283
 21
118.368783247877
 31
0.0
  0
ARC
  5
8D
330
74
100
AcDbEntity
  8
외각
100
AcDbCircle
 10
318.1619926202283
 20
118.368783247877
 30
0.0
 40
2.0
100
AcDbArc
 50
90.0
 51
180.0
  0
LINE
  5
8E
330
74
100
AcDbEntity
  8
외각
100
AcDbLine
 10
318.1619926202283
 20
120.368783247877
 30
0.0
 11
356.8988938541195
 21
120.368783247877
 31
0.0
  0
CIRCLE
  5
90
330
74
100
AcDbEntity
  8
구멍
100
AcDbCircle
 10
352.5304432371739
 20
114.368783247877
 30
0.0
 40
2.0
  0
LINE
  5
92
330
74
100
AcDbEntity
  8
깊이_3_1MM
100
AcDbLine
 10
326.0304432371738
 20
113.9495951573219
 30
0.0
 11
326.0304432371738
 21
114.7879713384321
 31
0.0
  0
ARC
  5
93
330
74
100
AcDbEntity
  8
깊이_3_1MM
100
AcDbCircle
 10
328.0304432371738
 20
114.7879713384321
 30
0.0
 40
2.0
100
AcDbArc
 50
161.7610539138893
 51
180.0
  0
ARC
  5
94
330
74
100
AcDbEntity
  8
깊이_3_1MM
100
AcDbCircle
 10
324.9912127500516
 20
115.7895091885507
 30
0.0
 40
1.200000002980232
100
AcDbArc
 50
341.7610539138893
 51
78.23894608611421
  0
ARC
  5
95
330
74
100
AcDbEntity
  8
깊이_3_1MM
100
AcDbCircle
 10
325.6434707725585
 20
118.9223289234139
 30
0.0
 40
2.0
100
AcDbArc
 50
239.9999999999991
 51
258.2389460861074
  0
LINE
  5
96
330
74
100
AcDbEntity
  8
깊이_3_1MM
100
AcDbLine
 10
324.6434707725584
 20
117.190278115845
 30
0.0
 11
323.9174157017892
 21
117.6094662064001
 31
0.0
  0
ARC
  5
97
330
74
100
AcDbEntity
  8
깊이_3_1MM
100
AcDbCircle
 10
324.9174157017893
 20
119.341517013969
 30
0.0
 40
2.0
100
AcDbArc
 50
221.7610539138874
 51
239.9999999999991
  0
ARC
  5
98
330
74
100
AcDbEntity
  8
깊이_3_1MM
100
AcDbCircle
 10
322.5304432371739
 20
117.2102351292242
 30
0.0
 40
1.200000002980232
100
AcDbArc
 50
41.7610539138874
 51
138.2389460861126
  0
ARC
  5
99
330
74
100
AcDbEntity
  8
깊이_3_1MM
100
AcDbCircle
 10
320.1434707725584
 20
119.341517013969
 30
0.0
 40
2.0
100
AcDbArc
 50
300.0000000000001
 51
318.2389460861121
  0
LINE
  5
9A
330
74
100
AcDbEntity
  8
깊이_3_1MM
100
AcDbLine
 10
321.1434707725584
 20
117.6094662064001
 30
0.0
 11
320.4174157017892
 21
117.190278115845
 31
0.0
  0
ARC
  5
9B
330
74
100
AcDbEntity
  8
깊이_3_1MM
100
AcDbCircle
 10
319.4174157017892
 20
118.9223289234139
 30
0.0
 40
2.0
100
AcDbArc
 50
281.7610539138925
 51
300.0000000000001
  0
ARC
  5
9C
330
74
100
AcDbEntity
  8
깊이_3_1MM
100
AcDbCircle
 10
320.0696737242962
 20
115.7895091885505
 30
0.0
 40
1.200000002980232
100
AcDbArc
 50
101.7610539138925
 51
198.2389460861102
  0
ARC
  5
9D
330
74
100
AcDbEntity
  8
깊이_3_1MM
100
AcDbCircle
 10
317.0304432371739
 20
114.7879713384322
 30
0.0
 40
2.0
100
AcDbArc
 50
0.0
 51
18.23894608611068
  0
LINE
  5
9E
330
74
100
AcDbEntity
  8
깊이_3_1MM
100
AcDbLine
 10
319.0304432371738
 20
114.7879713384322
 30
0.0
 11
319.0304432371738
 21
113.949595157322
 31
0.0
  0
ARC
  5
9F
330
74
100
AcDbEntity
  8
깊이_3_1MM
100
AcDbCircle
 10
317.0304432371739
 20
113.949595157322
 30
0.0
 40
2.0
100
AcDbArc
 50
341.7610539138893
 51
0.0
  0
ARC
  5
A0
330
74
100
AcDbEntity
  8
깊이_3_1MM
100
AcDbCircle
 10
320.0696737242962
 20
112.9480573072035
 30
0.0
 40
1.200000002980232
100
AcDbArc
 50
161.7610539138893
 51
258.2389460861074
  0
ARC
  5
A1
330
74
100
AcDbEntity
  8
깊이_3_1MM
100
AcDbCircle
 10
319.4174157017892
 20
109.8152375723402
 30
0.0
 40
2.0
100
AcDbArc
 50
59.99999999999913
 51
78.23894608610747
  0
LINE
  5
A2
330
74
100
AcDbEntity
  8
깊이_3_1MM
100
AcDbLine
 10
320.4174157017892
 20
111.5472883799091
 30
0.0
 11
321.1434707725584
 21
111.128100289354
 31
0.0
  0
ARC
  5
A3
330
74
100
AcDbEntity
  8
깊이_3_1MM
100
AcDbCircle
 10
320.1434707725584
 20
109.3960494817851
 30
0.0
 40
2.0
100
AcDbArc
 50
41.7610539138874
 51
59.99999999999913
  0
ARC
  5
A4
330
74
100
AcDbEntity
  8
깊이_3_1MM
100
AcDbCircle
 10
322.5304432371738
 20
111.5273313665299
 30
0.0
 40
1.200000002980232
100
AcDbArc
 50
221.7610539138874
 51
318.2389460861121
  0
ARC
  5
A5
330
74
100
AcDbEntity
  8
깊이_3_1MM
100
AcDbCircle
 10
324.9174157017892
 20
109.3960494817851
 30
0.0
 40
2.0
100
AcDbArc
 50
120.0000000000001
 51
138.2389460861126
  0
LINE
  5
A6
330
74
100
AcDbEntity
  8
깊이_3_1MM
100
AcDbLine
 10
323.9174157017892
 20
111.1281002893539
 30
0.0
 11
324.6434707725584
 21
111.547288379909
 31
0.0
  0
ARC
  5
A7
330
74
100
AcDbEntity
  8
깊이_3_1MM
100
AcDbCircle
 10
325.6434707725585
 20
109.8152375723402
 30
0.0
 40
2.0
100
AcDbArc
 50
101.7610539138858
 51
120.0000000000001
  0
ARC
  5
A8
330
74
100
AcDbEntity
  8
깊이_3_1MM
100
AcDbCircle
 10
324.9912127500516
 20
112.9480573072035
 30
0.0
 40
1.200000002980232
100
AcDbArc
 50
281.7610539138858
 51
18.23894608611068
  0
ARC
  5
A9
330
74
100
AcDbEntity
  8
깊이_3_1MM
100
AcDbCircle
 10
328.0304432371738
 20
113.9495951573219
 30
0.0
 40
2.0
100
AcDbArc
 50
180.0
 51
198.2389460861102
  0
ARC
  5
AA
330
74
100
AcDbEntity
  8
깊이_3_1MM
100
AcDbCircle
 10
355.6434707725584
 20
109.8152375723402
 30
0.0
 40
2.0
100
AcDbArc
 50
101.7610539138858
 51
120.0000000000001
  0
ARC
  5
AB
330
74
100
AcDbEntity
  8
깊이_3_1MM
100
AcDbCircle
 10
354.9912127500515
 20
112.9480573072035
 30
0.0
 40
1.200000002980232
100
AcDbArc
 50
281.7610539138925
 51
18.23894608611068
  0
ARC
  5
AC
330
74
100
AcDbEntity
  8
깊이_3_1MM
100
AcDbCircle
 10
358.0304432371739
 20
113.9495951573219
 30
0.0
 40
2.0
100
AcDbArc
 50
180.0
 51
198.2389460861102
  0
LINE
  5
AD
330
74
100
AcDbEntity
  8
깊이_3_1MM
100
AcDbLine
 10
356.0304432371739
 20
113.9495951573219
 30
0.0
 11
356.0304432371739
 21
114.7879713384321
 31
0.0
  0
ARC
  5
AE
330
74
100
AcDbEntity
  8
깊이_3_1MM
100
AcDbCircle
 10
358.0304432371739
 20
114.7879713384323
 30
0.0
 40
2.0
100
AcDbArc
 50
161.7610539138893
 51
180.0
  0
ARC
  5
AF
330
74
100
AcDbEntity
  8
깊이_3_1MM
100
AcDbCircle
 10
354.9912127500515
 20
115.7895091885505
 30
0.0
 40
1.200000002980232
100
AcDbArc
 50
341.7610539138893
 51
78.23894608611421
  0
ARC
  5
B0
330
74
100
AcDbEntity
  8
깊이_3_1MM
100
AcDbCircle
 10
355.6434707725584
 20
118.9223289234139
 30
0.0
 40
2.0
100
AcDbArc
 50
239.9999999999991
 51
258.2389460861142
  0
LINE
  5
B1
330
74
100
AcDbEntity
  8
깊이_3_1MM
100
AcDbLine
 10
354.6434707725584
 20
117.190278115845
 30
0.0
 11
353.9174157017892
 21
117.6094662064001
 31
0.0
  0
ARC
  5
B2
330
74
100
AcDbEntity
  8
깊이_3_1MM
100
AcDbCircle
 10
354.9174157017892
 20
119.341517013969
 30
0.0
 40
2.0
100
AcDbArc
 50
221.7610539138874
 51
239.9999999999991
  0
ARC
  5
B3
330
74
100
AcDbEntity
  8
깊이_3_1MM
100
AcDbCircle
 10
352.5304432371739
 20
117.2102351292242
 30
0.0
 40
1.200000002980232
100
AcDbArc
 50
41.7610539138874
 51
138.2389460861126
  0
ARC
  5
B4
330
74
100
AcDbEntity
  8
깊이_3_1MM
100
AcDbCircle
 10
350.1434707725584
 20
119.341517013969
 30
0.0
 40
2.0
100
AcDbArc
 50
300.0000000000001
 51
318.2389460861121
  0
LINE
  5
B5
330
74
100
AcDbEntity
  8
깊이_3_1MM
100
AcDbLine
 10
351.1434707725584
 20
117.6094662064001
 30
0.0
 11
350.4174157017892
 21
117.190278115845
 31
0.0
  0
ARC
  5
B6
330
74
100
AcDbEntity
  8
깊이_3_1MM
100
AcDbCircle
 10
349.4174157017892
 20
118.9223289234138
 30
0.0
 40
2.0
100
AcDbArc
 50
281.7610539138925
 51
300.0000000000001
  0
ARC
  5
B7
330
74
100
AcDbEntity
  8
깊이_3_1MM
100
AcDbCircle
 10
350.0696737242961
 20
115.7895091885505
 30
0.0
 40
1.200000002980232
100
AcDbArc
 50
101.7610539138925
 51
198.2389460861102
  0
ARC
  5
B8
330
74
100
AcDbEntity
  8
깊이_3_1MM
100
AcDbCircle
 10
347.0304432371739
 20
114.7879713384322
 30
0.0
 40
2.0
100
AcDbArc
 50
0.0
 51
18.23894608611068
  0
LINE
  5
B9
330
74
100
AcDbEntity
  8
깊이_3_1MM
100
AcDbLine
 10
349.0304432371739
 20
114.7879713384321
 30
0.0
 11
349.0304432371739
 21
113.9495951573219
 31
0.0
  0
ARC
  5
BA
330
74
100
AcDbEntity
  8
깊이_3_1MM
100
AcDbCircle
 10
347.0304432371739
 20
113.9495951573219
 30
0.0
 40
2.0
100
AcDbArc
 50
341.7610539138893
 51
0.0
  0
ARC
  5
BB
330
74
100
AcDbEntity
  8
깊이_3_1MM
100
AcDbCircle
 10
350.0696737242961
 20
112.9480573072034
 30
0.0
 40
1.200000002980232
100
AcDbArc
 50
161.7610539138893
 51
258.2389460861142
  0
ARC
  5
BC
330
74
100
AcDbEntity
  8
깊이_3_1MM
100
AcDbCircle
 10
349.4174157017892
 20
109.8152375723401
 30
0.0
 40
2.0
100
AcDbArc
 50
59.99999999999913
 51
78.23894608611421
  0
LINE
  5
BD
330
74
100
AcDbEntity
  8
깊이_3_1MM
100
AcDbLine
 10
350.4174157017892
 20
111.547288379909
 30
0.0
 11
351.1434707725584
 21
111.1281002893539
 31
0.0
  0
ARC
  5
BE
330
74
100
AcDbEntity
  8
깊이_3_1MM
100
AcDbCircle
 10
350.1434707725584
 20
109.396049481785
 30
0.0
 40
2.0
100
AcDbArc
 50
41.7610539138874
 51
59.99999999999913
  0
ARC
  5
BF
330
74
100
AcDbEntity
  8
깊이_3_1MM
100
AcDbCircle
 10
352.5304432371739
 20
111.5273313665299
 30
0.0
 40
1.200000002980232
100
AcDbArc
 50
221.7610539138874
 51
318.2389460861121
  0
ARC
  5
C0
330
74
100
AcDbEntity
  8
깊이_3_1MM
100
AcDbCircle
 10
354.9174157017892
 20
109.3960494817851
 30
0.0
 40
2.0
100
AcDbArc
 50
120.0000000000001
 51
138.2389460861126
  0
LINE
  5
C1
330
74
100
AcDbEntity
  8
깊이_3_1MM
100
AcDbLine
 10
353.9174157017893
 20
111.1281002893539
 30
0.0
 11
354.6434707725584
 21
111.547288379909
 31
0.0
  0
CIRCLE
  5
C2
330
74
100
AcDbEntity
  8
깊이_3_1MM
100
AcDbCircle
 10
386.1619926202284
 20
162.368783247877
 30
0.0
 40
5.0
  0
CIRCLE
  5
C3
330
74
100
AcDbEntity
  8
구멍
100
AcDbCircle
 10
386.1619926202284
 20
162.368783247877
 30
0.0
 40
2.70000000298023
  0
CIRCLE
  5
C4
330
74
100
AcDbEntity
  8
깊이_3_1MM
100
AcDbCircle
 10
326.1619926202282
 20
162.368783247877
 30
0.0
 40
5.0
  0
CIRCLE
  5
C5
330
74
100
AcDbEntity
  8
구멍
100
AcDbCircle
 10
326.1619926202282
 20
162.368783247877
 30
0.0
 40
2.70000000298023
  0
CIRCLE
  5
C7
330
74
100
AcDbEntity
  8
깊이_3_1MM
100
AcDbCircle
 10
336.2119923341261
 20
67.36878324787709
 30
0.0
 40
2.349999904632568
  0
CIRCLE
  5
C8
330
74
100
AcDbEntity
  8
깊이_3_1MM
100
AcDbCircle
 10
320.011992524861
 20
67.36878324787703
 30
0.0
 40
2.349999904632568
  0
ARC
  5
C9
330
74
100
AcDbEntity
  8
구멍
100
AcDbCircle
 10
328.1119924294935
 20
67.36878324787703
 30
0.0
 40
2.99999990314245
100
AcDbArc
 50
114.466431492372
 51
294.466431492372
  0
ARC
  5
CA
330
74
100
AcDbEntity
  8
구멍
100
AcDbCircle
 10
328.1119924294935
 20
67.36878324787703
 30
0.0
 40
2.99999990314245
100
AcDbArc
 50
294.466431492372
 51
65.53356850762802
  0
ARC
  5
CB
330
74
100
AcDbEntity
  8
구멍
100
AcDbCircle
 10
329.5615525381629
 20
70.55449742421983
 30
0.0
 40
0.5
100
AcDbArc
 50
194.9005957220111
 51
245.533568507628
  0
ARC
  5
CC
330
74
100
AcDbEntity
  8
구멍
100
AcDbCircle
 10
328.1119924294935
 20
70.16878316294047
 30
0.0
 40
1.0
100
AcDbArc
 50
14.90059572200796
 51
165.0994042779904
  0
ARC
  5
CD
330
74
100
AcDbEntity
  8
구멍
100
AcDbCircle
 10
326.6624323208242
 20
70.55449742421983
 30
0.0
 40
0.5
100
AcDbArc
 50
294.466431492372
 51
345.0994042779921
  0
CIRCLE
  5
CE
330
74
100
AcDbEntity
  8
깊이_3_1MM
100
AcDbCircle
 10
348.0619927155957
 20
162.368783247877
 30
0.0
 40
2.349999904632568
  0
CIRCLE
  5
CF
330
74
100
AcDbEntity
  8
깊이_3_1MM
100
AcDbCircle
 10
364.2619925248608
 20
162.368783247877
 30
0.0
 40
2.349999904632568
  0
CIRCLE
  5
D0
330
74
100
AcDbEntity
  8
구멍
100
AcDbCircle
 10
329.4304433325412
 20
114.368783247877
 30
0.0
 40
1.5
  0
CIRCLE
  5
D1
330
74
100
AcDbEntity
  8
구멍
100
AcDbCircle
 10
345.6304431418065
 20
114.3687832478771
 30
0.0
 40
1.5
  0
CIRCLE
  5
D2
330
74
100
AcDbEntity
  8
구멍
100
AcDbCircle
 10
348.0619927155957
 20
162.368783247877
 30
0.0
 40
1.5
  0
CIRCLE
  5
D3
330
74
100
AcDbEntity
  8
구멍
100
AcDbCircle
 10
364.2619925248608
 20
162.368783247877
 30
0.0
 40
1.5
  0
CIRCLE
  5
D4
330
74
100
AcDbEntity
  8
구멍
100
AcDbCircle
 10
336.2119923341261
 20
67.36878324787709
 30
0.0
 40
1.600000023841857
  0
CIRCLE
  5
D5
330
74
100
AcDbEntity
  8
구멍
100
AcDbCircle
 10
320.011992524861
 20
67.36878324787703
 30
0.0
 40
1.600000023841857
  0
CIRCLE
  5
D6
330
74
100
AcDbEntity
  8
구멍
100
AcDbCircle
 10
371.1619926202284
 20
162.368783247877
 30
0.0
 40
2.0
  0
CIRCLE
  5
D7
330
74
100
AcDbEntity
  8
구멍
100
AcDbCircle
 10
341.1619926202283
 20
162.368783247877
 30
0.0
 40
2.0
  0
LINE
  5
E9
330
74
100
AcDbEntity
  8
외각
100
AcDbLine
 10
318.1619926202284
 20
72.36878324787703
 30
0.0
 11
338.0619922387587
 21
72.36878324787702
 31
0.0
  0
ARC
  5
F2
330
74
100
AcDbEntity
  8
외각
100
AcDbCircle
 10
338.0619922387587
 20
70.36878324787704
 30
0.0
 40
2.0
100
AcDbArc
 50
0.0
 51
90.0
  0
LINE
  5
F3
330
74
100
AcDbEntity
  8
외각
100
AcDbLine
 10
340.0619922387587
 20
70.36878324787704
 30
0.0
 11
340.0619922387587
 21
64.36878324787703
 31
0.0
  0
ARC
  5
F4
330
74
100
AcDbEntity
  8
외각
100
AcDbCircle
 10
338.0619922387587
 20
64.36878324787703
 30
0.0
 40
2.0
100
AcDbArc
 50
270.0
 51
0.0
  0
LINE
  5
FD
330
74
100
AcDbEntity
  8
외각
100
AcDbLine
 10
338.0619922387587
 20
62.36878324787703
 30
0.0
 11
318.1619926202284
 21
62.36878324787703
 31
0.0
  0
ARC
  5
FE
330
74
100
AcDbEntity
  8
외각
100
AcDbCircle
 10
318.1619926202284
 20
64.36878324787703
 30
0.0
 40
2.0
100
AcDbArc
 50
180.0
 51
270.0
  0
LINE
  5
FF
330
74
100
AcDbEntity
  8
외각
100
AcDbLine
 10
316.1619926202284
 20
64.36878324787703
 30
0.0
 11
316.1619926202284
 21
70.36878324787704
 31
0.0
  0
ARC
  5
100
330
74
100
AcDbEntity
  8
외각
100
AcDbCircle
 10
318.1619926202284
 20
70.36878324787704
 30
0.0
 40
2.0
100
AcDbArc
 50
90.0
 51
180.0
  0
CIRCLE
  5
116
330
74
100
AcDbEntity
  8
깊이_3_1MM
  6
DASHEDX2
100
AcDbCircle
 10
341.1619926202283
 20
162.368783247877
 30
0.0
 40
3.600000001490116
  0
CIRCLE
  5
117
330
74
100
AcDbEntity
  8
깊이_3_1MM
  6
DASHEDX2
100
AcDbCircle
 10
371.1619926202284
 20
162.368783247877
 30
0.0
 40
3.600000001490116
  0
LINE
  5
716
330
74
100
AcDbEntity
  8
외각
100
AcDbLine
 10
316.1619926202283
 20
146.368783247877
 30
0.0
 11
316.1619926202283
 21
140.368783247877
 31
0.0
  0
LINE
  5
71C
330
74
100
AcDbEntity
  8
외각
100
AcDbLine
 10
396.1619926202284
 20
146.368783247877
 30
0.0
 11
396.1619926202284
 21
140.368783247877
 31
0.0
  0
LINE
  5
722
330
74
100
AcDbEntity
  8
외각
100
AcDbLine
 10
316.1619926202283
 20
98.36878324787704
 30
0.0
 11
316.1619926202283
 21
92.36878324787705
 31
0.0
  0
LINE
  5
728
330
74
100
AcDbEntity
  8
외각
100
AcDbLine
 10
358.8988938541195
 20
98.36878324787701
 30
0.0
 11
358.8988938541195
 21
92.36878324787708
 31
0.0
  0
LINE
  5
72E
330
74
100
AcDbEntity
  8
외각
100
AcDbLine
 10
316.1619926202283
 20
45.36878324787703
 30
0.0
 11
316.1619926202284
 21
51.36878324787704
 31
0.0
  0
LINE
  5
734
330
74
100
AcDbEntity
  8
외각
100
AcDbLine
 10
340.0619922387587
 20
45.36878324787703
 30
0.0
 11
340.0619922387587
 21
51.368783247877
 31
0.0
  0
LINE
  5
738
330
74
100
AcDbEntity
  8
외각
100
AcDbLine
 10
340.0619922387587
 20
45.36878324787703
 30
0.0
 11
316.1619926202283
 21
45.36878324787703
 31
0.0
  0
LINE
  5
739
330
74
100
AcDbEntity
  8
외각
100
AcDbLine
 10
340.0619922387587
 20
51.368783247877
 30
0.0
 11
316.1619926202284
 21
51.36878324787704
 31
0.0
  0
LINE
  5
73A
330
74
100
AcDbEntity
  8
외각
100
AcDbLine
 10
396.1619926202284
 20
146.368783247877
 30
0.0
 11
316.1619926202283
 21
146.368783247877
 31
0.0
  0
LINE
  5
73B
330
74
100
AcDbEntity
  8
외각
100
AcDbLine
 10
396.1619926202284
 20
140.368783247877
 30
0.0
 11
316.1619926202283
 21
140.368783247877
 31
0.0
  0
LINE
  5
73C
330
74
100
AcDbEntity
  8
외각
100
AcDbLine
 10
358.8988938541195
 20
98.36878324787701
 30
0.0
 11
316.1619926202283
 21
98.36878324787704
 31
0.0
  0
LINE
  5
73D
330
74
100
AcDbEntity
  8
외각
100
AcDbLine
 10
358.8988938541195
 20
92.36878324787708
 30
0.0
 11
316.1619926202283
 21
92.36878324787705
 31
0.0
  0
LINE
  5
73E
330
74
100
AcDbEntity
  8
CONSTRUCTION
100
AcDbLine
 10
321.1619926202283
 20
146.368783247877
 30
0.0
 11
321.1619926202283
 21
143.3687832478771
 31
0.0
  0
LINE
  5
73F
330
74
100
AcDbEntity
  8
CONSTRUCTION
100
AcDbLine
 10
331.1619926202283
 20
146.368783247877
 30
0.0
 11
331.1619926202283
 21
143.368783247877
 31
0.0
  0
LINE
  5
740
330
74
100
AcDbEntity
  8
CONSTRUCTION
100
AcDbLine
 10
323.4619926172481
 20
143.3687832478771
 30
0.0
 11
323.4619926172481
 21
140.368783247877
 31
0.0
  0
LINE
  5
741
330
74
100
AcDbEntity
  8
CONSTRUCTION
100
AcDbLine
 10
328.8619926232086
 20
143.368783247877
 30
0.0
 11
328.8619926232085
 21
140.368783247877
 31
0.0
  0
LINE
  5
744
330
74
100
AcDbEntity
  8
CONSTRUCTION
100
AcDbLine
 10
339.1619926202283
 20
146.368783247877
 30
0.0
 11
339.1619926202283
 21
143.368783247877
 31
0.0
  0
LINE
  5
745
330
74
100
AcDbEntity
  8
CONSTRUCTION
100
AcDbLine
 10
343.1619926202283
 20
146.368783247877
 30
0.0
 11
343.1619926202284
 21
143.3687832478771
 31
0.0
  0
LINE
  5
746
330
74
100
AcDbEntity
  8
CONSTRUCTION
100
AcDbLine
 10
345.7119928109632
 20
146.368783247877
 30
0.0
 11
345.7119928109631
 21
145.368783247877
 31
0.0
  0
LINE
  5
747
330
74
100
AcDbEntity
  8
CONSTRUCTION
100
AcDbLine
 10
350.4119926202284
 20
146.368783247877
 30
0.0
 11
350.4119926202284
 21
145.368783247877
 31
0.0
  0
LINE
  5
748
330
74
100
AcDbEntity
  8
CONSTRUCTION
100
AcDbLine
 10
346.5619927155956
 20
145.368783247877
 30
0.0
 11
346.5619927155956
 21
140.368783247877
 31
0.0
  0
LINE
  5
749
330
74
100
AcDbEntity
  8
CONSTRUCTION
100
AcDbLine
 10
349.5619927155957
 20
145.3687832478771
 30
0.0
 11
349.5619927155957
 21
140.368783247877
 31
0.0
  0
LINE
  5
74A
330
74
100
AcDbEntity
  8
CONSTRUCTION
100
AcDbLine
 10
319.0304432371738
 20
98.36878324787704
 30
0.0
 11
319.0304432371739
 21
95.36878324787705
 31
0.0
  0
LINE
  5
74B
330
74
100
AcDbEntity
  8
CONSTRUCTION
100
AcDbLine
 10
318.869673721316
 20
98.36878324787704
 30
0.0
 11
318.869673721316
 21
95.36878324787705
 31
0.0
  0
LINE
  5
74C
330
74
100
AcDbEntity
  8
CONSTRUCTION
100
AcDbLine
 10
320.5304432371738
 20
95.36878324787705
 30
0.0
 11
320.5304432371738
 21
92.36878324787705
 31
0.0
  0
LINE
  5
74D
330
74
100
AcDbEntity
  8
CONSTRUCTION
100
AcDbLine
 10
324.5304432371738
 20
95.36878324787705
 30
0.0
 11
324.5304432371738
 21
92.36878324787705
 31
0.0
  0
LINE
  5
74E
330
74
100
AcDbEntity
  8
CONSTRUCTION
100
AcDbLine
 10
326.0304432371738
 20
98.36878324787704
 30
0.0
 11
326.0304432371738
 21
95.36878324787705
 31
0.0
  0
LINE
  5
74F
330
74
100
AcDbEntity
  8
CONSTRUCTION
100
AcDbLine
 10
326.1912127530317
 20
98.36878324787701
 30
0.0
 11
326.1912127530317
 21
95.36878324787705
 31
0.0
  0
LINE
  5
752
330
74
100
AcDbEntity
  8
CONSTRUCTION
100
AcDbLine
 10
327.9304433325413
 20
98.36878324787704
 30
0.0
 11
327.9304433325413
 21
92.36878324787705
 31
0.0
  0
LINE
  5
753
330
74
100
AcDbEntity
  8
CONSTRUCTION
100
AcDbLine
 10
330.9304433325412
 20
98.36878324787701
 30
0.0
 11
330.9304433325412
 21
92.36878324787708
 31
0.0
  0
LINE
  5
754
330
74
100
AcDbEntity
  8
CONSTRUCTION
100
AcDbLine
 10
334.4304433325413
 20
98.36878324787704
 30
0.0
 11
334.4304433325413
 21
92.36878324787708
 31
0.0
  0
LINE
  5
755
330
74
100
AcDbEntity
  8
CONSTRUCTION
100
AcDbLine
 10
317.6619926202284
 20
50.36878324787698
 30
0.0
 11
317.6619926202284
 21
51.36878324787703
 31
0.0
  0
LINE
  5
756
330
74
100
AcDbEntity
  8
CONSTRUCTION
100
AcDbLine
 10
318.411992501019
 20
45.36878324787702
 30
0.0
 11
318.4119925010192
 21
50.36878324787698
 31
0.0
  0
LINE
  5
757
330
74
100
AcDbEntity
  8
CONSTRUCTION
100
AcDbLine
 10
321.6119925487027
 20
45.36878324787701
 30
0.0
 11
321.6119925487029
 21
50.36878324787703
 31
0.0
  0
LINE
  5
758
330
74
100
AcDbEntity
  8
CONSTRUCTION
100
AcDbLine
 10
322.3619924294935
 20
50.36878324787703
 30
0.0
 11
322.3619924294935
 21
51.36878324787702
 31
0.0
  0
LINE
  5
759
330
74
100
AcDbEntity
  8
CONSTRUCTION
100
AcDbLine
 10
325.1119925263511
 20
45.368783247877
 30
0.0
 11
325.1119925263512
 21
51.36878324787698
 31
0.0
  0
LINE
  5
782
330
74
100
AcDbEntity
  8
CONSTRUCTION
100
AcDbLine
 10
321.1619926202283
 20
143.3687832478771
 30
0.0
 11
323.4619926172481
 21
143.3687832478771
 31
0.0
  0
LINE
  5
783
330
74
100
AcDbEntity
  8
CONSTRUCTION
100
AcDbLine
 10
337.5619926187381
 20
143.368783247877
 30
0.0
 11
339.1619926202283
 21
143.368783247877
 31
0.0
  0
LINE
  5
788
330
74
100
AcDbEntity
  8
CONSTRUCTION
100
AcDbLine
 10
337.5619926187381
 20
140.368783247877
 30
0.0
 11
337.5619926187381
 21
143.368783247877
 31
0.0
  0
LINE
  5
789
330
74
100
AcDbEntity
  8
CONSTRUCTION
100
AcDbLine
 10
344.7619926217184
 20
140.368783247877
 30
0.0
 11
344.7619926217183
 21
143.368783247877
 31
0.0
  0
LINE
  5
78A
330
74
100
AcDbEntity
  8
CONSTRUCTION
100
AcDbLine
 10
326.1912127530317
 20
95.36878324787705
 30
0.0
 11
324.5304432371739
 21
95.36878324787705
 31
0.0
  0
LINE
  5
7AD
330
74
100
AcDbEntity
  8
CONSTRUCTION
100
AcDbLine
 10
328.8619926232086
 20
143.368783247877
 30
0.0
 11
331.1619926202283
 21
143.368783247877
 31
0.0
  0
LINE
  5
7AE
330
74
100
AcDbEntity
  8
CONSTRUCTION
100
AcDbLine
 10
343.1619926202284
 20
143.3687832478771
 30
0.0
 11
344.7619926217183
 21
143.368783247877
 31
0.0
  0
LINE
  5
7B0
330
74
100
AcDbEntity
  8
CONSTRUCTION
100
AcDbLine
 10
320.5304432371738
 20
95.36878324787705
 30
0.0
 11
318.869673721316
 21
95.36878324787705
 31
0.0
  0
LINE
  5
7B2
330
74
100
AcDbEntity
  8
CONSTRUCTION
100
AcDbLine
 10
391.1619926202284
 20
146.368783247877
 30
0.0
 11
391.1619926202284
 21
143.3687832478771
 31
0.0
  0
LINE
  5
7B3
330
74
100
AcDbEntity
  8
CONSTRUCTION
100
AcDbLine
 10
381.1619926202284
 20
146.368783247877
 30
0.0
 11
381.1619926202284
 21
143.368783247877
 31
0.0
  0
LINE
  5
7B4
330
74
100
AcDbEntity
  8
CONSTRUCTION
100
AcDbLine
 10
388.8619926232085
 20
143.3687832478771
 30
0.0
 11
388.8619926232085
 21
140.368783247877
 31
0.0
  0
LINE
  5
7B5
330
74
100
AcDbEntity
  8
CONSTRUCTION
100
AcDbLine
 10
383.4619926172479
 20
143.368783247877
 30
0.0
 11
383.461992617248
 21
140.368783247877
 31
0.0
  0
LINE
  5
7B6
330
74
100
AcDbEntity
  8
CONSTRUCTION
100
AcDbLine
 10
373.1619926202282
 20
146.368783247877
 30
0.0
 11
373.1619926202282
 21
143.368783247877
 31
0.0
  0
LINE
  5
7B7
330
74
100
AcDbEntity
  8
CONSTRUCTION
100
AcDbLine
 10
369.1619926202282
 20
146.368783247877
 30
0.0
 11
369.1619926202282
 21
143.3687832478771
 31
0.0
  0
LINE
  5
7BC
330
74
100
AcDbEntity
  8
CONSTRUCTION
100
AcDbLine
 10
391.1619926202284
 20
143.3687832478771
 30
0.0
 11
388.8619926232085
 21
143.3687832478771
 31
0.0
  0
LINE
  5
7BD
330
74
100
AcDbEntity
  8
CONSTRUCTION
100
AcDbLine
 10
383.4619926172479
 20
143.368783247877
 30
0.0
 11
381.1619926202284
 21
143.368783247877
 31
0.0
  0
LINE
  5
7BE
330
74
100
AcDbEntity
  8
CONSTRUCTION
100
AcDbLine
 10
374.7619926217184
 20
143.368783247877
 30
0.0
 11
373.1619926202282
 21
143.368783247877
 31
0.0
  0
LINE
  5
7BF
330
74
100
AcDbEntity
  8
CONSTRUCTION
100
AcDbLine
 10
369.1619926202282
 20
143.3687832478771
 30
0.0
 11
367.5619926187382
 21
143.368783247877
 31
0.0
  0
LINE
  5
7C2
330
74
100
AcDbEntity
  8
CONSTRUCTION
100
AcDbLine
 10
374.7619926217184
 20
140.368783247877
 30
0.0
 11
374.7619926217184
 21
143.368783247877
 31
0.0
  0
LINE
  5
7C3
330
74
100
AcDbEntity
  8
CONSTRUCTION
100
AcDbLine
 10
367.5619926187382
 20
140.368783247877
 30
0.0
 11
367.5619926187382
 21
143.368783247877
 31
0.0
  0
LINE
  5
7C4
330
74
100
AcDbEntity
  8
CONSTRUCTION
100
AcDbLine
 10
356.030443237174
 20
98.3687832478774
 30
0.0
 11
356.030443237174
 21
95.36878324787741
 31
0.0
  0
LINE
  5
7C5
330
74
100
AcDbEntity
  8
CONSTRUCTION
100
AcDbLine
 10
356.1912127530318
 20
98.36878324787743
 30
0.0
 11
356.1912127530318
 21
95.36878324787741
 31
0.0
  0
LINE
  5
7C6
330
74
100
AcDbEntity
  8
CONSTRUCTION
100
AcDbLine
 10
354.530443237174
 20
95.36878324787734
 30
0.0
 11
354.5304432371742
 21
92.36878324787735
 31
0.0
  0
LINE
  5
7C7
330
74
100
AcDbEntity
  8
CONSTRUCTION
100
AcDbLine
 10
350.530443237174
 20
95.36878324787728
 30
0.0
 11
350.5304432371742
 21
92.36878324787728
 31
0.0
  0
LINE
  5
7C8
330
74
100
AcDbEntity
  8
CONSTRUCTION
100
AcDbLine
 10
349.030443237174
 20
98.36878324787727
 30
0.0
 11
349.0304432371742
 21
95.36878324787727
 31
0.0
  0
LINE
  5
7C9
330
74
100
AcDbEntity
  8
CONSTRUCTION
100
AcDbLine
 10
348.8696737213161
 20
98.36878324787727
 30
0.0
 11
348.8696737213161
 21
95.36878324787727
 31
0.0
  0
LINE
  5
7CA
330
74
100
AcDbEntity
  8
CONSTRUCTION
100
AcDbLine
 10
347.1304431418065
 20
98.36878324787722
 30
0.0
 11
347.1304431418066
 21
92.36878324787722
 31
0.0
  0
LINE
  5
7CB
330
74
100
AcDbEntity
  8
CONSTRUCTION
100
AcDbLine
 10
344.1304431418067
 20
98.36878324787711
 30
0.0
 11
344.1304431418067
 21
92.36878324787721
 31
0.0
  0
LINE
  5
7CC
330
74
100
AcDbEntity
  8
CONSTRUCTION
100
AcDbLine
 10
340.6304431418067
 20
98.36878324787711
 30
0.0
 11
340.6304431418067
 21
92.36878324787712
 31
0.0
  0
LINE
  5
7CD
330
74
100
AcDbEntity
  8
CONSTRUCTION
100
AcDbLine
 10
348.8696737213161
 20
95.36878324787727
 30
0.0
 11
350.530443237174
 21
95.36878324787728
 31
0.0
  0
LINE
  5
7CE
330
74
100
AcDbEntity
  8
CONSTRUCTION
100
AcDbLine
 10
354.530443237174
 20
95.36878324787734
 30
0.0
 11
356.1912127530318
 21
95.36878324787741
 31
0.0
  0
LINE
  5
7DC
330
74
100
AcDbEntity
  8
CONSTRUCTION
100
AcDbLine
 10
331.1119923326359
 20
45.36878324787705
 30
0.0
 11
331.1119923326359
 21
51.36878324787701
 31
0.0
  0
LINE
  5
7E1
330
74
100
AcDbEntity
  8
CONSTRUCTION
100
AcDbLine
 10
345.7119928109631
 20
145.368783247877
 30
0.0
 11
346.5619927155956
 21
145.368783247877
 31
0.0
  0
LINE
  5
7E2
330
74
100
AcDbEntity
  8
CONSTRUCTION
100
AcDbLine
 10
349.5619927155957
 20
145.3687832478771
 30
0.0
 11
350.4119926202284
 21
145.368783247877
 31
0.0
  0
LINE
  5
7E5
330
74
100
AcDbEntity
  8
CONSTRUCTION
100
AcDbLine
 10
317.6619926202284
 20
50.36878324787698
 30
0.0
 11
318.4119925010192
 21
50.36878324787698
 31
0.0
  0
LINE
  5
7E6
330
74
100
AcDbEntity
  8
CONSTRUCTION
100
AcDbLine
 10
321.6119925487029
 20
50.36878324787703
 30
0.0
 11
322.3619924294935
 21
50.36878324787703
 31
0.0
  0
LINE
  5
7E9
330
74
100
AcDbEntity
  8
CONSTRUCTION
100
AcDbLine
 10
338.5619922387587
 20
50.36878324787695
 30
0.0
 11
338.5619922387587
 21
51.368783247877
 31
0.0
  0
LINE
  5
7EA
330
74
100
AcDbEntity
  8
CONSTRUCTION
100
AcDbLine
 10
337.8119923579679
 20
45.36878324787698
 30
0.0
 11
337.8119923579679
 21
50.36878324787695
 31
0.0
  0
LINE
  5
7EB
330
74
100
AcDbEntity
  8
CONSTRUCTION
100
AcDbLine
 10
334.6119923102842
 20
45.36878324787699
 30
0.0
 11
334.6119923102842
 21
50.368783247877
 31
0.0
  0
LINE
  5
7EC
330
74
100
AcDbEntity
  8
CONSTRUCTION
100
AcDbLine
 10
333.8619924294936
 20
50.368783247877
 30
0.0
 11
333.8619924294936
 21
51.36878324787701
 31
0.0
  0
LINE
  5
7ED
330
74
100
AcDbEntity
  8
CONSTRUCTION
100
AcDbLine
 10
338.5619922387587
 20
50.36878324787695
 30
0.0
 11
337.8119923579679
 21
50.36878324787695
 31
0.0
  0
LINE
  5
7EE
330
74
100
AcDbEntity
  8
CONSTRUCTION
100
AcDbLine
 10
334.6119923102842
 20
50.368783247877
 30
0.0
 11
333.8619924294936
 21
50.368783247877
 31
0.0
  0
LINE
  5
7EF
330
74
100
AcDbEntity
  8
CONSTRUCTION
100
AcDbLine
 10
366.6119924294934
 20
146.368783247877
 30
0.0
 11
366.6119924294934
 21
145.368783247877
 31
0.0
  0
LINE
  5
7F0
330
74
100
AcDbEntity
  8
CONSTRUCTION
100
AcDbLine
 10
361.9119926202282
 20
146.368783247877
 30
0.0
 11
361.9119926202282
 21
145.368783247877
 31
0.0
  0
LINE
  5
7F1
330
74
100
AcDbEntity
  8
CONSTRUCTION
100
AcDbLine
 10
365.7619925248608
 20
145.368783247877
 30
0.0
 11
365.7619925248608
 21
140.368783247877
 31
0.0
  0
LINE
  5
7F2
330
74
100
AcDbEntity
  8
CONSTRUCTION
100
AcDbLine
 10
362.7619925248608
 20
145.3687832478771
 30
0.0
 11
362.7619925248608
 21
140.368783247877
 31
0.0
  0
LINE
  5
7F3
330
74
100
AcDbEntity
  8
CONSTRUCTION
100
AcDbLine
 10
366.6119924294934
 20
145.368783247877
 30
0.0
 11
365.7619925248608
 21
145.368783247877
 31
0.0
  0
LINE
  5
7F4
330
74
100
AcDbEntity
  8
CONSTRUCTION
100
AcDbLine
 10
362.7619925248608
 20
145.3687832478771
 30
0.0
 11
361.9119926202282
 21
145.368783247877
 31
0.0
  0
LINE
  5
7F8
330
74
100
AcDbEntity
  8
클립
100
AcDbLine
 10
328.5304432371739
 20
119.4187832001933
 30
0.0
 11
346.5304432371739
 21
119.4187832001933
 31
0.0
  0
LINE
  5
7F9
330
74
100
AcDbEntity
  8
클립
100
AcDbLine
 10
328.5304432371739
 20
118.4187832001933
 30
0.0
 11
346.5304432371739
 21
118.4187832001933
 31
0.0
  0
LINE
  5
7FA
330
74
100
AcDbEntity
  8
클립
100
AcDbLine
 10
328.5304432371739
 20
110.3187832955607
 30
0.0
 11
346.5304432371739
 21
110.3187832955607
 31
0.0
  0
LINE
  5
7FB
330
74
100
AcDbEntity
  8
클립
100
AcDbLine
 10
328.5304432371739
 20
109.3187832955607
 30
0.0
 11
346.5304432371739
 21
109.3187832955607
 31
0.0
  0
ARC
  5
7FC
330
74
100
AcDbEntity
  8
클립
100
AcDbCircle
 10
346.5304432371739
 20
118.9187832001933
 30
0.0
 40
0.5
100
AcDbArc
 50
270.0
 51
90.0
  0
ARC
  5
80D
330
74
100
AcDbEntity
  8
클립
100
AcDbCircle
 10
346.5304432371739
 20
109.8187832955607
 30
0.0
 40
0.5
100
AcDbArc
 50
270.0
 51
90.0
  0
ARC
  5
80E
330
74
100
AcDbEntity
  8
클립
100
AcDbCircle
 10
328.5304432371739
 20
118.9187832001933
 30
0.0
 40
0.5
100
AcDbArc
 50
90.0
 51
270.0
  0
ARC
  5
80F
330
74
100
AcDbEntity
  8
클립
100
AcDbCircle
 10
328.5304432371739
 20
109.8187832955607
 30
0.0
 40
0.5
100
AcDbArc
 50
90.0
 51
270.0
  0
LINE
  5
810
330
74
100
AcDbEntity
  8
CONSTRUCTION
  6
DASHED2
100
AcDbLine
 10
346.5304432371739
 20
97.868783247877
 30
0.0
 11
328.5304432371739
 21
97.86878324787705
 31
0.0
  0
ARC
  5
81B
330
74
100
AcDbEntity
  8
CONSTRUCTION
  6
DASHED2
100
AcDbCircle
 10
328.5304432371739
 20
98.36878324787704
 30
0.0
 40
0.5
100
AcDbArc
 50
180.0
 51
270.0
  0
ARC
  5
81C
330
74
100
AcDbEntity
  8
CONSTRUCTION
  6
DASHED2
100
AcDbCircle
 10
346.5304432371739
 20
98.36878324787722
 30
0.0
 40
0.5
100
AcDbArc
 50
270.0
 51
0.0000000000012213
  0
LINE
  5
81F
330
74
100
AcDbEntity
  8
클립
  6
DASHEDX2
100
AcDbLine
 10
331.9869923810647
 20
72.368783247877
 30
0.0
 11
331.9869923810647
 21
62.36878324787703
 31
0.0
  0
LINE
  5
820
330
74
100
AcDbEntity
  8
클립
  6
DASHEDX2
100
AcDbLine
 10
332.9869923810648
 20
72.368783247877
 30
0.0
 11
332.9869923810648
 21
62.36878324787703
 31
0.0
  0
LINE
  5
821
330
74
100
AcDbEntity
  8
클립
  6
DASHEDX2
100
AcDbLine
 10
323.2369924779224
 20
72.368783247877
 30
0.0
 11
323.2369924779224
 21
62.36878324787703
 31
0.0
  0
LINE
  5
822
330
74
100
AcDbEntity
  8
클립
  6
DASHEDX2
100
AcDbLine
 10
324.2369924779224
 20
72.368783247877
 30
0.0
 11
324.2369924779224
 21
62.36878324787703
 31
0.0
  0
ARC
  5
826
330
74
100
AcDbEntity
  8
CONSTRUCTION
  6
DASHED2
100
AcDbCircle
 10
323.7369924779222
 20
45.36878324787701
 30
0.0
 40
0.5000000000000285
100
AcDbArc
 50
0.0
 51
180.0
  0
ARC
  5
827
330
74
100
AcDbEntity
  8
CONSTRUCTION
  6
DASHED2
100
AcDbCircle
 10
332.4869923810647
 20
45.36878324787699
 30
0.0
 40
0.5000000000000285
100
AcDbArc
 50
0.0
 51
180.0
  0
LINE
  5
860
330
74
100
AcDbEntity
  8
CONSTRUCTION
100
AcDbLine
 10
328.1119924294936
 20
51.36878324787702
 30
0.0
 11
328.1119924294935
 21
45.36878324787703
 31
0.0
  0
LINE
  5
861
330
74
100
AcDbEntity
  8
CONSTRUCTION
100
AcDbLine
 10
326.869512342079
 20
51.36878324787702
 30
0.0
 11
326.8695123420791
 21
45.36878324787703
 31
0.0
  0
LINE
  5
862
330
74
100
AcDbEntity
  8
CONSTRUCTION
100
AcDbLine
 10
329.3544725169082
 20
51.36878324787701
 30
0.0
 11
329.3544725169082
 21
45.36878324787703
 31
0.0
  0
ENDSEC
  0
SECTION
  2
OBJECTS
  0
DICTIONARY
  5
C
330
0
100
AcDbDictionary
281
     1
  3
ACAD_COLOR
350
6A
  3
ACAD_GROUP
350
D
  3
ACAD_LAYOUT
350
69
  3
ACAD_MATERIAL
350
10
  3
ACAD_MLEADERSTYLE
350
6D
  3
ACAD_MLINESTYLE
350
66
  3
ACAD_PLOTSETTINGS
350
68
  3
ACAD_PLOTSTYLENAME
350
E
  3
ACAD_SCALELIST
350
3A
  3
ACAD_TABLESTYLE
350
6B
  3
ACAD_VISUALSTYLE
350
29
  3
ACDB_RECOMPOSE_DATA
350
84C
  3
AcDbVariableDictionary
350
843
  3
DWGPROPS
350
876
  0
DICTIONARY
  5
828
330
2
100
AcDbDictionary
280
     1
281
     1
  3
ACAD_LAYERFILTERS
360
86D
  3
ACLYDICTIONARY
360
86C
  0
DICTIONARY
  5
78B
330
5C
100
AcDbDictionary
280
     1
281
     1
  3
ADSK_XREC_LAYER_RECONCILED
360
78C
  0
DICTIONARY
  5
78D
330
78
100
AcDbDictionary
280
     1
281
     1
  3
ADSK_XREC_LAYER_RECONCILED
360
78E
  0
DICTIONARY
  5
78F
330
81
100
AcDbDictionary
280
     1
281
     1
  3
ADSK_XREC_LAYER_RECONCILED
360
790
  0
DICTIONARY
  5
791
330
83
100
AcDbDictionary
280
     1
281
     1
  3
ADSK_XREC_LAYER_RECONCILED
360
792
  0
DICTIONARY
  5
793
330
91
100
AcDbDictionary
280
     1
281
     1
  3
ADSK_XREC_LAYER_RECONCILED
360
794
  0
DICTIONARY
  5
799
330
70A
100
AcDbDictionary
280
     1
281
     1
  3
ADSK_XREC_LAYER_RECONCILED
360
79A
  0
DICTIONARY
  5
736
330
74
100
AcDbDictionary
280
     1
281
     1
  3
ACAD_SORTENTS
360
737
  0
DICTIONARY
  5
6A
102
{ACAD_REACTORS
330
C
102
}
330
C
100
AcDbDictionary
281
     1
  0
DICTIONARY
  5
D
102
{ACAD_REACTORS
330
C
102
}
330
C
100
AcDbDictionary
281
     1
  0
DICTIONARY
  5
69
102
{ACAD_REACTORS
330
C
102
}
330
C
100
AcDbDictionary
281
     1
  3
Model
350
77
  3
배치1
350
73
  0
DICTIONARY
  5
10
102
{ACAD_REACTORS
330
C
102
}
330
C
100
AcDbDictionary
281
     1
  3
ByBlock
350
19
  3
ByLayer
350
11
  3
Global
350
21
  0
DICTIONARY
  5
6D
102
{ACAD_REACTORS
330
C
102
}
330
C
100
AcDbDictionary
281
     1
  3
Standard
350
6E
  0
DICTIONARY
  5
66
102
{ACAD_REACTORS
330
C
102
}
330
C
100
AcDbDictionary
281
     1
  3
Standard
350
67
  0
DICTIONARY
  5
68
102
{ACAD_REACTORS
330
C
102
}
330
C
100
AcDbDictionary
281
     1
  0
ACDBDICTIONARYWDFLT
  5
E
102
{ACAD_REACTORS
330
C
102
}
330
C
100
AcDbDictionary
281
     1
  3
Normal
350
F
100
AcDbDictionaryWithDefault
340
F
  0
DICTIONARY
  5
3A
102
{ACAD_REACTORS
330
C
102
}
330
C
100
AcDbDictionary
281
     1
  3
A0
350
3B
  3
A1
350
3C
  3
A2
350
3D
  3
A3
350
3E
  3
A4
350
3F
  3
A5
350
40
  3
A6
350
41
  3
A7
350
42
  3
A8
350
43
  3
A9
350
44
  3
B0
350
45
  3
B1
350
46
  3
B2
350
47
  3
B3
350
48
  3
B4
350
49
  3
B5
350
4A
  3
B6
350
4B
  3
B7
350
4C
  3
B8
350
4D
  3
B9
350
4E
  3
C0
350
4F
  3
C1
350
50
  3
C2
350
51
  3
C3
350
52
  3
C4
350
53
  3
C5
350
54
  3
C6
350
55
  3
C7
350
56
  3
C8
350
57
  3
C9
350
58
  3
D0
350
59
  3
D1
350
5A
  3
D2
350
5B
  0
DICTIONARY
  5
6B
102
{ACAD_REACTORS
330
C
102
}
330
C
100
AcDbDictionary
281
     1
  3
Standard
350
6C
  0
DICTIONARY
  5
29
102
{ACAD_REACTORS
330
C
102
}
330
C
100
AcDbDictionary
281
     1
  3
2dWireframe
350
2F
  3
3D Hidden
350
31
  3
3dWireframe
350
30
  3
Basic
350
2E
  3
Brighten
350
35
  3
ColorChange
350
39
  3
Conceptual
350
32
  3
Dim
350
34
  3
Facepattern
350
38
  3
Flat
350
2A
  3
FlatWithEdges
350
2B
  3
Gouraud
350
2C
  3
GouraudWithEdges
350
2D
  3
Linepattern
350
37
  3
Realistic
350
33
  3
Thicken
350
36
  0
XRECORD
  5
84C
102
{ACAD_REACTORS
330
C
102
}
330
C
100
AcDbXrecord
280
     1
 90
        1
330
6C
  0
DICTIONARY
  5
843
102
{ACAD_REACTORS
330
C
102
}
330
C
100
AcDbDictionary
281
     1
  3
CANNOSCALE
350
846
  3
CMLEADERSTYLE
350
845
  3
CTABLESTYLE
350
844
  3
DIMASSOC
350
849
  3
INDEXCTL
350
848
  3
SORTENTS
350
847
  0
XRECORD
  5
876
102
{ACAD_REACTORS
330
C
102
}
330
C
100
AcDbXrecord
280
     1
  1
DWGPROPS COOKIE
  2

  3

  4

  6

  7

  8
kmtek
  9

300
=
301
=
302
=
303
=
304
=
305
=
306
=
307
=
308
=
309
=
 40
0.053062974537037
 41
2455189.722080799
 42
2455190.501168067
  1

 90
        0
  0
DICTIONARY
  5
86D
102
{ACAD_REACTORS
330
828
102
}
330
828
100
AcDbDictionary
281
     1
  0
DICTIONARY
  5
86C
102
{ACAD_REACTORS
330
828
102
}
330
828
100
AcDbDictionary
281
     1
1001
ACAD
1000
<All
  0
XRECORD
  5
78C
102
{ACAD_REACTORS
330
78B
102
}
330
78B
100
AcDbXrecord
280
     1
290
     1
  0
XRECORD
  5
78E
102
{ACAD_REACTORS
330
78D
102
}
330
78D
100
AcDbXrecord
280
     1
290
     1
  0
XRECORD
  5
790
102
{ACAD_REACTORS
330
78F
102
}
330
78F
100
AcDbXrecord
280
     1
290
     1
  0
XRECORD
  5
792
102
{ACAD_REACTORS
330
791
102
}
330
791
100
AcDbXrecord
280
     1
290
     1
  0
XRECORD
  5
794
102
{ACAD_REACTORS
330
793
102
}
330
793
100
AcDbXrecord
280
     1
290
     1
  0
XRECORD
  5
79A
102
{ACAD_REACTORS
330
799
102
}
330
799
100
AcDbXrecord
280
     1
290
     1
  0
SORTENTSTABLE
  5
737
102
{ACAD_REACTORS
330
736
102
}
330
736
100
AcDbSortentsTable
330
74
331
9C
  5
A6
331
79
  5
79
331
728
  5
73E
331
F3
  5
722
331
738
  5
7D
331
7B7
  5
7C2
331
A4
  5
AE
331
740
  5
745
331
7BF
  5
7CA
331
AC
  5
B6
331
80E
  5
81B
331
B4
  5
BE
331
748
  5
74B
331
7C7
  5
7D9
331
BC
  5
C7
331
758
  5
783
331
C4
  5
CF
331
CC
  5
D6
331
826
  5
840
331
D4
  5
EF
331
8D
  5
99
331
7EF
  5
7F2
331
7A
  5
7A
331
7B0
  5
7B8
331
9D
  5
A7
331
82
  5
90
331
A5
  5
AF
331
F4
  5
728
331
739
  5
82
331
AD
  5
B7
331
92
  5
9C
331
741
  5
746
331
749
  5
74C
331
B5
  5
BF
331
80F
  5
81C
331
7C8
  5
7DA
331
BD
  5
C8
331
81F
  5
822
331
C5
  5
D0
331
759
  5
784
331
CD
  5
D7
331
827
  5
841
331
8E
  5
9A
331
D5
  5
F0
331
722
  5
73D
331
9E
  5
A8
331
7B
  5
7B
331
7F0
  5
7F3
331
73A
  5
80
331
A6
  5
B0
331
7F8
  5
80E
331
93
  5
9D
331
FD
  5
72E
331
AE
  5
B8
331
810
  5
7F
331
B6
  5
C0
331
74A
  5
74D
331
7C9
  5
7DB
331
BE
  5
C9
331
752
  5
755
331
820
  5
821
331
782
  5
786
331
7E1
  5
7B1
331
CE
  5
E9
331
D6
  5
F9
331
7E9
  5
7EC
331
7F1
  5
7F4
331
9F
  5
A9
331
7C
  5
88
331
7B2
  5
7B9
331
7F9
  5
80D
331
A7
  5
B1
331
73B
  5
85
331
7C2
  5
7CB
331
94
  5
9E
331
AF
  5
B9
331
FE
  5
734
331
74B
  5
74E
331
B7
  5
C1
331
753
  5
756
331
7CA
  5
7DC
331
BF
  5
CA
331
C7
  5
D1
331
821
  5
826
331
7E2
  5
7B2
331
88
  5
94
331
CF
  5
EA
331
71C
  5
73C
331
783
  5
7AD
331
7EA
  5
7ED
331
D7
  5
FA
331
98
  5
A2
331
7B3
  5
7BA
331
A0
  5
AA
331
7D
  5
89
331
7F2
  5
7F7
331
73C
  5
7E
331
A8
  5
B2
331
7FA
  5
7FC
331
95
  5
9F
331
B0
  5
BA
331
FF
  5
735
331
744
  5
747
331
7C3
  5
7CC
331
74C
  5
74F
331
B8
  5
C2
331
7CB
  5
7DF
331
716
  5
73B
331
C0
  5
CB
331
754
  5
757
331
C8
  5
D2
331
822
  5
827
331
89
  5
95
331
D0
  5
EB
331
7EB
  5
7EE
331
99
  5
A3
331
7F3
  5
7F8
331
A1
  5
AB
331
7E
  5
8A
331
7B4
  5
7BB
331
7BC
  5
7C3
331
A9
  5
B3
331
86
  5
92
331
73D
  5
84
331
7C4
  5
7CD
331
B1
  5
BB
331
96
  5
A0
331
745
  5
748
331
74D
  5
752
331
B9
  5
C3
331
81B
  5
81F
331
C1
  5
CC
331
755
  5
758
331
7CC
  5
7E4
331
7DC
  5
7EB
331
116
  5
739
331
C9
  5
D3
331
788
  5
7B5
331
8A
  5
96
331
D1
  5
EC
331
7AD
  5
789
331
7EC
  5
7EF
331
9A
  5
A4
331
E9
  5
FB
331
72E
  5
73F
331
7B5
  5
7C0
331
A2
  5
AC
331
7F
  5
8D
331
7F4
  5
7FA
331
73E
  5
741
331
7BD
  5
7C8
331
AA
  5
B4
331
87
  5
93
331
7FC
  5
80F
331
B2
  5
BC
331
97
  5
A1
331
746
  5
749
331
7C5
  5
7CE
331
74E
  5
753
331
BA
  5
C4
331
7CD
  5
7E9
331
81C
  5
820
331
C2
  5
CD
331
756
  5
759
331
789
  5
7B6
331
CA
  5
D4
331
117
  5
73A
331
D2
  5
ED
331
8B
  5
97
331
7E5
  5
7B3
331
7ED
  5
7F0
331
7AE
  5
7AF
331
9B
  5
A5
331
80
  5
8E
331
A3
  5
AD
331
F2
  5
71C
331
7B6
  5
7C1
331
7BE
  5
7C9
331
AB
  5
B5
331
90
  5
9B
331
73F
  5
744
331
747
  5
74A
331
7C6
  5
7D8
331
B3
  5
BD
331
80D
  5
810
331
74F
  5
754
331
BB
  5
C5
331
100
  5
738
331
C3
  5
CE
331
757
  5
782
331
734
  5
740
331
7CE
  5
7EA
331
CB
  5
D5
331
78A
  5
7B7
331
7E6
  5
7B4
331
8C
  5
98
331
D3
  5
EE
331
7EE
  5
7F1
  0
LAYOUT
  5
77
102
{ACAD_XDICTIONARY
360
87A
102
}
102
{ACAD_REACTORS
330
69
102
}
330
69
100
AcDbPlotSettings
  1

  2
\\DUO\HP LaserJet 1020
  4

  6

 40
0.0
 41
0.0
 42
0.0
 43
0.0
 44
0.0
 45
0.0
 46
0.0
 47
0.0
 48
0.0
 49
0.0
140
0.0
141
0.0
142
1.0
143
1.0
 70
  1712
 72
     0
 73
     0
 74
     0
  7

 75
     0
147
1.0
148
0.0
149
0.0
100
AcDbLayout
  1
Model
 70
     1
 71
     0
 10
0.0
 20
0.0
 11
12.0
 21
9.0
 12
0.0
 22
0.0
 32
0.0
 14
0.0
 24
0.0
 34
0.0
 15
0.0
 25
0.0
 35
0.0
146
0.0
 13
0.0
 23
0.0
 33
0.0
 16
1.0
 26
0.0
 36
0.0
 17
0.0
 27
1.0
 37
0.0
 76
     0
330
74
331
70E
  0
LAYOUT
  5
73
102
{ACAD_XDICTIONARY
360
878
102
}
102
{ACAD_REACTORS
330
69
102
}
330
69
100
AcDbPlotSettings
  1

  2
\\DUO\HP LaserJet 1020
  4

  6

 40
0.0
 41
0.0
 42
0.0
 43
0.0
 44
0.0
 45
0.0
 46
0.0
 47
0.0
 48
0.0
 49
0.0
140
0.0
141
0.0
142
1.0
143
1.0
 70
   688
 72
     0
 73
     0
 74
     5
  7

 75
    16
147
1.0
148
0.0
149
0.0
100
AcDbLayout
  1
배치1
 70
     1
 71
     1
 10
0.0
 20
0.0
 11
12.0
 21
9.0
 12
0.0
 22
0.0
 32
0.0
 14
1.000000000000000E+20
 24
1.000000000000000E+20
 34
1.000000000000000E+20
 15
-1.000000000000000E+20
 25
-1.000000000000000E+20
 35
-1.000000000000000E+20
146
0.0
 13
0.0
 23
0.0
 33
0.0
 16
1.0
 26
0.0
 36
0.0
 17
0.0
 27
1.0
 37
0.0
 76
     0
330
70
  0
MATERIAL
  5
19
102
{ACAD_XDICTIONARY
360
1A
102
}
102
{ACAD_REACTORS
330
10
102
}
330
10
100
AcDbMaterial
  1
ByBlock
 72
     0
 43
0.0208333333333333
 43
0.0
 43
0.0
 43
0.0
 43
0.0
 43
0.0208333333333333
 43
0.0
 43
0.0
 43
0.0
 43
0.0
 43
1.0
 43
0.0
 43
0.0
 43
0.0
 43
0.0
 43
1.0
 77
     0
 47
0.0208333333333333
 47
0.0
 47
0.0
 47
0.0
 47
0.0
 47
0.0208333333333333
 47
0.0
 47
0.0
 47
0.0
 47
0.0
 47
1.0
 47
0.0
 47
0.0
 47
0.0
 47
0.0
 47
1.0
171
     0
 49
0.0208333333333333
 49
0.0
 49
0.0
 49
0.0
 49
0.0
 49
0.0208333333333333
 49
0.0
 49
0.0
 49
0.0
 49
0.0
 49
1.0
 49
0.0
 49
0.0
 49
0.0
 49
0.0
 49
1.0
175
     0
142
0.0208333333333333
142
0.0
142
0.0
142
0.0
142
0.0
142
0.0208333333333333
142
0.0
142
0.0
142
0.0
142
0.0
142
1.0
142
0.0
142
0.0
142
0.0
142
0.0
142
1.0
179
     0
144
0.0208333333333333
144
0.0
144
0.0
144
0.0
144
0.0
144
0.0208333333333333
144
0.0
144
0.0
144
0.0
144
0.0
144
1.0
144
0.0
144
0.0
144
0.0
144
0.0
144
1.0
147
0.0208333333333333
147
0.0
147
0.0
147
0.0
147
0.0
147
0.0208333333333333
147
0.0
147
0.0
147
0.0
147
0.0
147
1.0
147
0.0
147
0.0
147
0.0
147
0.0
147
1.0
  0
MATERIAL
  5
11
102
{ACAD_XDICTIONARY
360
12
102
}
102
{ACAD_REACTORS
330
10
102
}
330
10
100
AcDbMaterial
  1
ByLayer
 72
     0
 43
0.0208333333333333
 43
0.0
 43
0.0
 43
0.0
 43
0.0
 43
0.0208333333333333
 43
0.0
 43
0.0
 43
0.0
 43
0.0
 43
1.0
 43
0.0
 43
0.0
 43
0.0
 43
0.0
 43
1.0
 77
     0
 47
0.0208333333333333
 47
0.0
 47
0.0
 47
0.0
 47
0.0
 47
0.0208333333333333
 47
0.0
 47
0.0
 47
0.0
 47
0.0
 47
1.0
 47
0.0
 47
0.0
 47
0.0
 47
0.0
 47
1.0
171
     0
 49
0.0208333333333333
 49
0.0
 49
0.0
 49
0.0
 49
0.0
 49
0.0208333333333333
 49
0.0
 49
0.0
 49
0.0
 49
0.0
 49
1.0
 49
0.0
 49
0.0
 49
0.0
 49
0.0
 49
1.0
175
     0
142
0.0208333333333333
142
0.0
142
0.0
142
0.0
142
0.0
142
0.0208333333333333
142
0.0
142
0.0
142
0.0
142
0.0
142
1.0
142
0.0
142
0.0
142
0.0
142
0.0
142
1.0
179
     0
144
0.0208333333333333
144
0.0
144
0.0
144
0.0
144
0.0
144
0.0208333333333333
144
0.0
144
0.0
144
0.0
144
0.0
144
1.0
144
0.0
144
0.0
144
0.0
144
0.0
144
1.0
147
0.0208333333333333
147
0.0
147
0.0
147
0.0
147
0.0
147
0.0208333333333333
147
0.0
147
0.0
147
0.0
147
0.0
147
1.0
147
0.0
147
0.0
147
0.0
147
0.0
147
1.0
  0
MATERIAL
  5
21
102
{ACAD_XDICTIONARY
360
22
102
}
102
{ACAD_REACTORS
330
10
102
}
330
10
100
AcDbMaterial
  1
Global
 72
     0
 43
0.0208333333333333
 43
0.0
 43
0.0
 43
0.0
 43
0.0
 43
0.0208333333333333
 43
0.0
 43
0.0
 43
0.0
 43
0.0
 43
1.0
 43
0.0
 43
0.0
 43
0.0
 43
0.0
 43
1.0
 77
     0
 47
0.0208333333333333
 47
0.0
 47
0.0
 47
0.0
 47
0.0
 47
0.0208333333333333
 47
0.0
 47
0.0
 47
0.0
 47
0.0
 47
1.0
 47
0.0
 47
0.0
 47
0.0
 47
0.0
 47
1.0
171
     0
 49
0.0208333333333333
 49
0.0
 49
0.0
 49
0.0
 49
0.0
 49
0.0208333333333333
 49
0.0
 49
0.0
 49
0.0
 49
0.0
 49
1.0
 49
0.0
 49
0.0
 49
0.0
 49
0.0
 49
1.0
175
     0
142
0.0208333333333333
142
0.0
142
0.0
142
0.0
142
0.0
142
0.0208333333333333
142
0.0
142
0.0
142
0.0
142
0.0
142
1.0
142
0.0
142
0.0
142
0.0
142
0.0
142
1.0
179
     0
144
0.0208333333333333
144
0.0
144
0.0
144
0.0
144
0.0
144
0.0208333333333333
144
0.0
144
0.0
144
0.0
144
0.0
144
1.0
144
0.0
144
0.0
144
0.0
144
0.0
144
1.0
147
0.0208333333333333
147
0.0
147
0.0
147
0.0
147
0.0
147
0.0208333333333333
147
0.0
147
0.0
147
0.0
147
0.0
147
1.0
147
0.0
147
0.0
147
0.0
147
0.0
147
1.0
  0
MLEADERSTYLE
  5
6E
102
{ACAD_REACTORS
330
6D
102
}
330
6D
100
AcDbMLeaderStyle
170
     2
171
     1
172
     0
 90
        2
 40
0.0
 41
0.0
173
     1
 91
-1056964608
340
62
 92
       -2
290
     1
 42
0.09
291
     1
 43
0.36
  3
Standard
 44
0.18
300

342
5D
174
     1
178
     6
175
     1
176
     0
 93
-1056964608
 45
0.18
292
     0
297
     0
 46
0.18
 94
-1056964608
 47
1.0
 49
1.0
140
1.0
293
     1
141
0.0
294
     1
177
     0
142
1.0
295
     0
296
     0
143
0.125
1001
ACAD_MLEADERVER
1070
     2
  0
MLINESTYLE
  5
67
102
{ACAD_REACTORS
330
66
102
}
330
66
100
AcDbMlineStyle
  2
STANDARD
 70
     0
  3

 62
   256
 51
90.0
 52
90.0
 71
     2
 49
0.5
 62
   256
  6
BYLAYER
 49
-0.5
 62
   256
  6
BYLAYER
  0
ACDBPLACEHOLDER
  5
F
102
{ACAD_REACTORS
330
E
102
}
330
E
  0
SCALE
  5
3B
102
{ACAD_REACTORS
330
3A
102
}
330
3A
100
AcDbScale
 70
     0
300
1:1
140
1.0
141
1.0
290
     1
  0
SCALE
  5
3C
102
{ACAD_REACTORS
330
3A
102
}
330
3A
100
AcDbScale
 70
     0
300
1:2
140
1.0
141
2.0
290
     0
  0
SCALE
  5
3D
102
{ACAD_REACTORS
330
3A
102
}
330
3A
100
AcDbScale
 70
     0
300
1:4
140
1.0
141
4.0
290
     0
  0
SCALE
  5
3E
102
{ACAD_REACTORS
330
3A
102
}
330
3A
100
AcDbScale
 70
     0
300
1:5
140
1.0
141
5.0
290
     0
  0
SCALE
  5
3F
102
{ACAD_REACTORS
330
3A
102
}
330
3A
100
AcDbScale
 70
     0
300
1:8
140
1.0
141
8.0
290
     0
  0
SCALE
  5
40
102
{ACAD_REACTORS
330
3A
102
}
330
3A
100
AcDbScale
 70
     0
300
1:10
140
1.0
141
10.0
290
     0
  0
SCALE
  5
41
102
{ACAD_REACTORS
330
3A
102
}
330
3A
100
AcDbScale
 70
     0
300
1:16
140
1.0
141
16.0
290
     0
  0
SCALE
  5
42
102
{ACAD_REACTORS
330
3A
102
}
330
3A
100
AcDbScale
 70
     0
300
1:20
140
1.0
141
20.0
290
     0
  0
SCALE
  5
43
102
{ACAD_REACTORS
330
3A
102
}
330
3A
100
AcDbScale
 70
     0
300
1:30
140
1.0
141
30.0
290
     0
  0
SCALE
  5
44
102
{ACAD_REACTORS
330
3A
102
}
330
3A
100
AcDbScale
 70
     0
300
1:40
140
1.0
141
40.0
290
     0
  0
SCALE
  5
45
102
{ACAD_REACTORS
330
3A
102
}
330
3A
100
AcDbScale
 70
     0
300
1:50
140
1.0
141
50.0
290
     0
  0
SCALE
  5
46
102
{ACAD_REACTORS
330
3A
102
}
330
3A
100
AcDbScale
 70
     0
300
1:100
140
1.0
141
100.0
290
     0
  0
SCALE
  5
47
102
{ACAD_REACTORS
330
3A
102
}
330
3A
100
AcDbScale
 70
     0
300
2:1
140
2.0
141
1.0
290
     0
  0
SCALE
  5
48
102
{ACAD_REACTORS
330
3A
102
}
330
3A
100
AcDbScale
 70
     0
300
4:1
140
4.0
141
1.0
290
     0
  0
SCALE
  5
49
102
{ACAD_REACTORS
330
3A
102
}
330
3A
100
AcDbScale
 70
     0
300
8:1
140
8.0
141
1.0
290
     0
  0
SCALE
  5
4A
102
{ACAD_REACTORS
330
3A
102
}
330
3A
100
AcDbScale
 70
     0
300
10:1
140
10.0
141
1.0
290
     0
  0
SCALE
  5
4B
102
{ACAD_REACTORS
330
3A
102
}
330
3A
100
AcDbScale
 70
     0
300
100:1
140
100.0
141
1.0
290
     0
  0
SCALE
  5
4C
102
{ACAD_REACTORS
330
3A
102
}
330
3A
100
AcDbScale
 70
     0
300
1/128" = 1'-0"
140
0.0078125
141
12.0
290
     0
  0
SCALE
  5
4D
102
{ACAD_REACTORS
330
3A
102
}
330
3A
100
AcDbScale
 70
     0
300
1/64" = 1'-0"
140
0.015625
141
12.0
290
     0
  0
SCALE
  5
4E
102
{ACAD_REACTORS
330
3A
102
}
330
3A
100
AcDbScale
 70
     0
300
1/32" = 1'-0"
140
0.03125
141
12.0
290
     0
  0
SCALE
  5
4F
102
{ACAD_REACTORS
330
3A
102
}
330
3A
100
AcDbScale
 70
     0
300
1/16" = 1'-0"
140
0.0625
141
12.0
290
     0
  0
SCALE
  5
50
102
{ACAD_REACTORS
330
3A
102
}
330
3A
100
AcDbScale
 70
     0
300
3/32" = 1'-0"
140
0.09375
141
12.0
290
     0
  0
SCALE
  5
51
102
{ACAD_REACTORS
330
3A
102
}
330
3A
100
AcDbScale
 70
     0
300
1/8" = 1'-0"
140
0.125
141
12.0
290
     0
  0
SCALE
  5
52
102
{ACAD_REACTORS
330
3A
102
}
330
3A
100
AcDbScale
 70
     0
300
3/16" = 1'-0"
140
0.1875
141
12.0
290
     0
  0
SCALE
  5
53
102
{ACAD_REACTORS
330
3A
102
}
330
3A
100
AcDbScale
 70
     0
300
1/4" = 1'-0"
140
0.25
141
12.0
290
     0
  0
SCALE
  5
54
102
{ACAD_REACTORS
330
3A
102
}
330
3A
100
AcDbScale
 70
     0
300
3/8" = 1'-0"
140
0.375
141
12.0
290
     0
  0
SCALE
  5
55
102
{ACAD_REACTORS
330
3A
102
}
330
3A
100
AcDbScale
 70
     0
300
1/2" = 1'-0"
140
0.5
141
12.0
290
     0
  0
SCALE
  5
56
102
{ACAD_REACTORS
330
3A
102
}
330
3A
100
AcDbScale
 70
     0
300
3/4" = 1'-0"
140
0.75
141
12.0
290
     0
  0
SCALE
  5
57
102
{ACAD_REACTORS
330
3A
102
}
330
3A
100
AcDbScale
 70
     0
300
1" = 1'-0"
140
1.0
141
12.0
290
     0
  0
SCALE
  5
58
102
{ACAD_REACTORS
330
3A
102
}
330
3A
100
AcDbScale
 70
     0
300
1-1/2" = 1'-0"
140
1.5
141
12.0
290
     0
  0
SCALE
  5
59
102
{ACAD_REACTORS
330
3A
102
}
330
3A
100
AcDbScale
 70
     0
300
3" = 1'-0"
140
3.0
141
12.0
290
     0
  0
SCALE
  5
5A
102
{ACAD_REACTORS
330
3A
102
}
330
3A
100
AcDbScale
 70
     0
300
6" = 1'-0"
140
6.0
141
12.0
290
     0
  0
SCALE
  5
5B
102
{ACAD_REACTORS
330
3A
102
}
330
3A
100
AcDbScale
 70
     0
300
1'-0" = 1'-0"
140
12.0
141
12.0
290
     0
  0
TABLESTYLE
  5
6C
102
{ACAD_XDICTIONARY
360
84A
102
}
102
{ACAD_REACTORS
330
6B
102
}
330
6B
100
AcDbTableStyle
  3
Standard
 70
     0
 71
     0
 40
0.06
 41
0.06
280
     0
281
     0
  7
Standard
140
0.18
170
     2
 62
     0
 63
     7
283
     0
274
    -2
284
     1
 64
     0
275
    -2
285
     1
 65
     0
276
    -2
286
     1
 66
     0
277
    -2
287
     1
 67
     0
278
    -2
288
     1
 68
     0
279
    -2
289
     1
 69
     0
  7
Standard
140
0.25
170
     5
 62
     0
 63
     7
283
     0
274
    -2
284
     1
 64
     0
275
    -2
285
     1
 65
     0
276
    -2
286
     1
 66
     0
277
    -2
287
     1
 67
     0
278
    -2
288
     1
 68
     0
279
    -2
289
     1
 69
     0
  7
Standard
140
0.18
170
     5
 62
     0
 63
     7
283
     0
274
    -2
284
     1
 64
     0
275
    -2
285
     1
 65
     0
276
    -2
286
     1
 66
     0
277
    -2
287
     1
 67
     0
278
    -2
288
     1
 68
     0
279
    -2
289
     1
 69
     0
  0
VISUALSTYLE
  5
2F
102
{ACAD_REACTORS
330
29
102
}
330
29
100
AcDbVisualStyle
  2
2dWireframe
 70
     4
 71
     0
 72
     2
 73
     0
 90
        0
 40
-0.6
 41
-30.0
 62
     5
 63
     7
 74
     1
 91
        4
 64
     7
 65
   257
 75
     1
175
     1
 42
1.0
 92
        0
 66
   257
 43
1.0
 76
     1
 77
     6
 78
     2
 67
     7
 79
     5
170
     0
171
     0
290
     0
174
     0
 93
        1
 44
0.0
173
     0
291
     0
 45
0.0
1001
ACAD
1000
AcDbSavedByObjectVersion
1070
     0
1000
AcDbSavedByObjectVersion
1070
     0
  0
VISUALSTYLE
  5
31
102
{ACAD_REACTORS
330
29
102
}
330
29
100
AcDbVisualStyle
  2
3D Hidden
 70
     6
 71
     1
 72
     2
 73
     2
 90
        0
 40
-0.6
 41
-30.0
 62
     5
 63
     7
 74
     2
 91
        2
 64
     7
 65
   257
 75
     2
175
     1
 42
40.0
 92
        0
 66
   257
 43
1.0
 76
     1
 77
     6
 78
     2
 67
     7
 79
     3
170
     0
171
     0
290
     0
174
     0
 93
        1
 44
0.0
173
     0
291
     0
 45
0.0
1001
ACAD
1000
AcDbSavedByObjectVersion
1070
     0
1000
AcDbSavedByObjectVersion
1070
     0
  0
VISUALSTYLE
  5
30
102
{ACAD_REACTORS
330
29
102
}
330
29
100
AcDbVisualStyle
  2
3dWireframe
 70
     5
 71
     0
 72
     2
 73
     0
 90
        0
 40
-0.6
 41
-30.0
 62
     5
 63
     7
 74
     1
 91
        4
 64
     7
 65
   257
 75
     1
175
     1
 42
1.0
 92
        0
 66
   257
 43
1.0
 76
     1
 77
     6
 78
     2
 67
     7
 79
     5
170
     0
171
     0
290
     0
174
     0
 93
        1
 44
0.0
173
     0
291
     0
 45
0.0
1001
ACAD
1000
AcDbSavedByObjectVersion
1070
     0
1000
AcDbSavedByObjectVersion
1070
     0
  0
VISUALSTYLE
  5
2E
102
{ACAD_REACTORS
330
29
102
}
330
29
100
AcDbVisualStyle
  2
Basic
 70
     7
 71
     1
 72
     0
 73
     1
 90
        0
 40
-0.6
 41
-30.0
 62
     5
 63
     7
 74
     0
 91
        4
 64
     7
 65
   257
 75
     1
175
     1
 42
1.0
 92
        8
 66
     7
 43
1.0
 76
     1
 77
     6
 78
     2
 67
     7
 79
     5
170
     0
171
     0
290
     0
174
     0
 93
        1
 44
0.0
173
     0
291
     1
 45
0.0
1001
ACAD
1000
AcDbSavedByObjectVersion
1070
     0
1000
AcDbSavedByObjectVersion
1070
     0
  0
VISUALSTYLE
  5
35
102
{ACAD_REACTORS
330
29
102
}
330
29
100
AcDbVisualStyle
  2
Brighten
 70
    12
 71
     2
 72
     2
 73
     0
 90
        0
 40
-0.6
 41
-30.0
 62
     5
 63
     7
 74
     1
 91
        4
 64
     7
 65
   257
 75
     1
175
     1
 42
1.0
 92
        8
 66
     7
 43
1.0
 76
     1
 77
     6
 78
     2
 67
     7
 79
     5
170
     0
171
     0
290
     0
174
     0
 93
        1
 44
50.0
173
     0
291
     1
 45
0.0
1001
ACAD
1000
AcDbSavedByObjectVersion
1070
     0
1000
AcDbSavedByObjectVersion
1070
     0
  0
VISUALSTYLE
  5
39
102
{ACAD_REACTORS
330
29
102
}
330
29
100
AcDbVisualStyle
  2
ColorChange
 70
    16
 71
     2
 72
     2
 73
     3
 90
        0
 40
-0.6
 41
-30.0
 62
     5
 63
     8
 74
     1
 91
        4
 64
     7
 65
   257
 75
     1
175
     1
 42
1.0
 92
        8
 66
     8
 43
1.0
 76
     1
 77
     6
 78
     2
 67
     7
 79
     5
170
     0
171
     0
290
     0
174
     0
 93
        1
 44
0.0
173
     0
291
     1
 45
0.0
1001
ACAD
1000
AcDbSavedByObjectVersion
1070
     0
1000
AcDbSavedByObjectVersion
1070
     0
  0
VISUALSTYLE
  5
32
102
{ACAD_REACTORS
330
29
102
}
330
29
100
AcDbVisualStyle
  2
Conceptual
 70
     9
 71
     3
 72
     2
 73
     0
 90
        0
 40
-0.6
 41
-30.0
 62
     5
 63
     7
 74
     2
 91
        2
 64
     7
 65
   257
 75
     1
175
     1
 42
40.0
 92
        8
 66
     7
 43
1.0
 76
     1
 77
     6
 78
     2
 67
     7
 79
     3
170
     0
171
     0
290
     0
174
     0
 93
        1
 44
0.0
173
     0
291
     0
 45
0.0
1001
ACAD
1000
AcDbSavedByObjectVersion
1070
     0
1000
AcDbSavedByObjectVersion
1070
     0
  0
VISUALSTYLE
  5
34
102
{ACAD_REACTORS
330
29
102
}
330
29
100
AcDbVisualStyle
  2
Dim
 70
    11
 71
     2
 72
     2
 73
     0
 90
        0
 40
-0.6
 41
-30.0
 62
     5
 63
     7
 74
     1
 91
        4
 64
     7
 65
   257
 75
     1
175
     1
 42
1.0
 92
        8
 66
     7
 43
1.0
 76
     1
 77
     6
 78
     2
 67
     7
 79
     5
170
     0
171
     0
290
     0
174
     0
 93
        1
 44
-50.0
173
     0
291
     1
 45
0.0
1001
ACAD
1000
AcDbSavedByObjectVersion
1070
     0
1000
AcDbSavedByObjectVersion
1070
     0
  0
VISUALSTYLE
  5
38
102
{ACAD_REACTORS
330
29
102
}
330
29
100
AcDbVisualStyle
  2
Facepattern
 70
    15
 71
     2
 72
     2
 73
     0
 90
        0
 40
-0.6
 41
-30.0
 62
     5
 63
     7
 74
     1
 91
        4
 64
     7
 65
   257
 75
     1
175
     1
 42
1.0
 92
        8
 66
     7
 43
1.0
 76
     1
 77
     6
 78
     2
 67
     7
 79
     5
170
     0
171
     0
290
     0
174
     0
 93
        1
 44
0.0
173
     0
291
     1
 45
0.0
1001
ACAD
1000
AcDbSavedByObjectVersion
1070
     0
1000
AcDbSavedByObjectVersion
1070
     0
  0
VISUALSTYLE
  5
2A
102
{ACAD_REACTORS
330
29
102
}
330
29
100
AcDbVisualStyle
  2
Flat
 70
     0
 71
     2
 72
     1
 73
     1
 90
        2
 40
-0.6
 41
30.0
 62
     5
 63
     7
 74
     0
 91
        4
 64
     7
 65
   257
 75
     1
175
     1
 42
1.0
 92
        8
 66
     7
 43
1.0
 76
     1
 77
     6
 78
     2
 67
     7
 79
     5
170
     0
171
     0
290
     0
174
     0
 93
       13
 44
0.0
173
     0
291
     1
 45
0.0
1001
ACAD
1000
AcDbSavedByObjectVersion
1070
     0
1000
AcDbSavedByObjectVersion
1070
     0
  0
VISUALSTYLE
  5
2B
102
{ACAD_REACTORS
330
29
102
}
330
29
100
AcDbVisualStyle
  2
FlatWithEdges
 70
     1
 71
     2
 72
     1
 73
     1
 90
        2
 40
-0.6
 41
30.0
 62
     5
 63
     7
 74
     1
 91
        4
 64
     7
 65
   257
 75
     1
175
     1
 42
1.0
 92
        0
 66
   257
 43
1.0
 76
     1
 77
     6
 78
     2
 67
     7
 79
     5
170
     0
171
     0
290
     0
174
     0
 93
       13
 44
0.0
173
     0
291
     1
 45
0.0
1001
ACAD
1000
AcDbSavedByObjectVersion
1070
     0
1000
AcDbSavedByObjectVersion
1070
     0
  0
VISUALSTYLE
  5
2C
102
{ACAD_REACTORS
330
29
102
}
330
29
100
AcDbVisualStyle
  2
Gouraud
 70
     2
 71
     2
 72
     2
 73
     1
 90
        2
 40
-0.6
 41
30.0
 62
     5
 63
     7
 74
     0
 91
        4
 64
     7
 65
   257
 75
     1
175
     1
 42
1.0
 92
        0
 66
     7
 43
1.0
 76
     1
 77
     6
 78
     2
 67
     7
 79
     5
170
     0
171
     0
290
     0
174
     0
 93
       13
 44
0.0
173
     0
291
     1
 45
0.0
1001
ACAD
1000
AcDbSavedByObjectVersion
1070
     0
1000
AcDbSavedByObjectVersion
1070
     0
  0
VISUALSTYLE
  5
2D
102
{ACAD_REACTORS
330
29
102
}
330
29
100
AcDbVisualStyle
  2
GouraudWithEdges
 70
     3
 71
     2
 72
     2
 73
     1
 90
        2
 40
-0.6
 41
30.0
 62
     5
 63
     7
 74
     1
 91
        4
 64
     7
 65
   257
 75
     1
175
     1
 42
1.0
 92
        0
 66
   257
 43
1.0
 76
     1
 77
     6
 78
     2
 67
     7
 79
     5
170
     0
171
     0
290
     0
174
     0
 93
       13
 44
0.0
173
     0
291
     1
 45
0.0
1001
ACAD
1000
AcDbSavedByObjectVersion
1070
     0
1000
AcDbSavedByObjectVersion
1070
     0
  0
VISUALSTYLE
  5
37
102
{ACAD_REACTORS
330
29
102
}
330
29
100
AcDbVisualStyle
  2
Linepattern
 70
    14
 71
     2
 72
     2
 73
     0
 90
        0
 40
-0.6
 41
-30.0
 62
     5
 63
     7
 74
     1
 91
        4
 64
     7
 65
   257
 75
     7
175
     7
 42
1.0
 92
        8
 66
     7
 43
1.0
 76
     1
 77
     6
 78
     2
 67
     7
 79
     5
170
     0
171
     0
290
     0
174
     0
 93
        1
 44
0.0
173
     0
291
     1
 45
0.0
1001
ACAD
1000
AcDbSavedByObjectVersion
1070
     0
1000
AcDbSavedByObjectVersion
1070
     0
  0
VISUALSTYLE
  5
33
102
{ACAD_REACTORS
330
29
102
}
330
29
100
AcDbVisualStyle
  2
Realistic
 70
     8
 71
     2
 72
     2
 73
     0
 90
        0
 40
-0.6
 41
-30.0
 62
     5
 63
     7
 74
     1
 91
        0
 64
     7
 65
   257
 75
     1
175
     1
 42
1.0
 92
        8
 66
     8
 43
1.0
 76
     1
 77
     6
 78
     2
 67
     7
 79
     5
170
     0
171
     0
290
     0
174
     0
 93
       13
 44
0.0
173
     0
291
     0
 45
0.0
1001
ACAD
1000
AcDbSavedByObjectVersion
1070
     0
1000
AcDbSavedByObjectVersion
1070
     0
  0
VISUALSTYLE
  5
36
102
{ACAD_REACTORS
330
29
102
}
330
29
100
AcDbVisualStyle
  2
Thicken
 70
    13
 71
     2
 72
     2
 73
     0
 90
        0
 40
-0.6
 41
-30.0
 62
     5
 63
     7
 74
     1
 91
        4
 64
     7
 65
   257
 75
     1
175
     1
 42
1.0
 92
       12
 66
     7
 43
1.0
 76
     1
 77
     6
 78
     2
 67
     7
 79
     5
170
     0
171
     0
290
     0
174
     0
 93
        1
 44
0.0
173
     0
291
     1
 45
0.0
1001
ACAD
1000
AcDbSavedByObjectVersion
1070
     0
1000
AcDbSavedByObjectVersion
1070
     0
  0
DICTIONARYVAR
  5
846
102
{ACAD_REACTORS
330
843
102
}
330
843
100
DictionaryVariables
280
     0
  1
1:1
  0
DICTIONARYVAR
  5
845
102
{ACAD_REACTORS
330
843
102
}
330
843
100
DictionaryVariables
280
     0
  1
STANDARD
  0
DICTIONARYVAR
  5
844
102
{ACAD_REACTORS
330
843
102
}
330
843
100
DictionaryVariables
280
     0
  1
STANDARD
  0
DICTIONARYVAR
  5
849
102
{ACAD_REACTORS
330
843
102
}
330
843
100
DictionaryVariables
280
     0
  1
1
  0
DICTIONARYVAR
  5
848
102
{ACAD_REACTORS
330
843
102
}
330
843
100
DictionaryVariables
280
     0
  1
0
  0
DICTIONARYVAR
  5
847
102
{ACAD_REACTORS
330
843
102
}
330
843
100
DictionaryVariables
280
     0
  1
127
  0
DICTIONARY
  5
87A
330
77
100
AcDbDictionary
280
     1
281
     1
  3
ACAD_XREC_ROUNDTRIP
360
87B
  0
DICTIONARY
  5
878
330
73
100
AcDbDictionary
280
     1
281
     1
  3
ACAD_XREC_ROUNDTRIP
360
879
  0
DICTIONARY
  5
1A
330
19
100
AcDbDictionary
280
     1
281
     1
  3
ACAD_XREC_ROUNDTRIP
360
84F
  3
BUMPTILE
360
1C
  3
DIFFUSETILE
360
1B
  3
OPACITYTILE
360
1F
  3
REFLECTIONTILE
360
1E
  3
REFRACTIONTILE
360
20
  3
SPECULARTILE
360
1D
  0
DICTIONARY
  5
12
330
11
100
AcDbDictionary
280
     1
281
     1
  3
ACAD_XREC_ROUNDTRIP
360
84E
  3
BUMPTILE
360
14
  3
DIFFUSETILE
360
13
  3
OPACITYTILE
360
17
  3
REFLECTIONTILE
360
16
  3
REFRACTIONTILE
360
18
  3
SPECULARTILE
360
15
  0
DICTIONARY
  5
22
330
21
100
AcDbDictionary
280
     1
281
     1
  3
ACAD_XREC_ROUNDTRIP
360
850
  3
BUMPTILE
360
24
  3
DIFFUSETILE
360
23
  3
OPACITYTILE
360
27
  3
REFLECTIONTILE
360
26
  3
REFRACTIONTILE
360
28
  3
SPECULARTILE
360
25
  0
DICTIONARY
  5
84A
330
6C
100
AcDbDictionary
280
     1
281
     1
  3
ACAD_ROUNDTRIP_2008_TABLESTYLE_CELLSTYLEMAP
360
875
  3
ACAD_XREC_ROUNDTRIP
360
877
  0
XRECORD
  5
87B
102
{ACAD_REACTORS
330
87A
102
}
330
87A
100
AcDbXrecord
280
     1
102
SHADEPLOT
 70
     0
102
SHADEPLOTRESLEVEL
 70
     2
102
SHADEPLOTCUSTOMDPI
 70
   300
  0
XRECORD
  5
879
102
{ACAD_REACTORS
330
878
102
}
330
878
100
AcDbXrecord
280
     1
102
SHADEPLOT
 70
     0
102
SHADEPLOTRESLEVEL
 70
     2
102
SHADEPLOTCUSTOMDPI
 70
   300
  0
XRECORD
  5
84F
102
{ACAD_REACTORS
330
1A
102
}
330
1A
100
AcDbXrecord
280
     1
102
MATERIAL
148
0.0
149
0.0
149
0.0
 93
        0
 94
      127
282
     0
 72
     0
 77
     0
171
     0
175
     0
179
     0
273
     0
  0
XRECORD
  5
1C
102
{ACAD_REACTORS
330
1A
102
}
330
1A
100
AcDbXrecord
280
     1
270
     1
271
     1
  0
XRECORD
  5
1B
102
{ACAD_REACTORS
330
1A
102
}
330
1A
100
AcDbXrecord
280
     1
270
     1
271
     1
  0
XRECORD
  5
1F
102
{ACAD_REACTORS
330
1A
102
}
330
1A
100
AcDbXrecord
280
     1
270
     1
271
     1
  0
XRECORD
  5
1E
102
{ACAD_REACTORS
330
1A
102
}
330
1A
100
AcDbXrecord
280
     1
270
     1
271
     1
  0
XRECORD
  5
20
102
{ACAD_REACTORS
330
1A
102
}
330
1A
100
AcDbXrecord
280
     1
270
     1
271
     1
  0
XRECORD
  5
1D
102
{ACAD_REACTORS
330
1A
102
}
330
1A
100
AcDbXrecord
280
     1
270
     1
271
     1
  0
XRECORD
  5
84E
102
{ACAD_REACTORS
330
12
102
}
330
12
100
AcDbXrecord
280
     1
102
MATERIAL
148
0.0
149
0.0
149
0.0
 93
        0
 94
      127
282
     0
 72
     0
 77
     0
171
     0
175
     0
179
     0
273
     0
  0
XRECORD
  5
14
102
{ACAD_REACTORS
330
12
102
}
330
12
100
AcDbXrecord
280
     1
270
     1
271
     1
  0
XRECORD
  5
13
102
{ACAD_REACTORS
330
12
102
}
330
12
100
AcDbXrecord
280
     1
270
     1
271
     1
  0
XRECORD
  5
17
102
{ACAD_REACTORS
330
12
102
}
330
12
100
AcDbXrecord
280
     1
270
     1
271
     1
  0
XRECORD
  5
16
102
{ACAD_REACTORS
330
12
102
}
330
12
100
AcDbXrecord
280
     1
270
     1
271
     1
  0
XRECORD
  5
18
102
{ACAD_REACTORS
330
12
102
}
330
12
100
AcDbXrecord
280
     1
270
     1
271
     1
  0
XRECORD
  5
15
102
{ACAD_REACTORS
330
12
102
}
330
12
100
AcDbXrecord
280
     1
270
     1
271
     1
  0
XRECORD
  5
850
102
{ACAD_REACTORS
330
22
102
}
330
22
100
AcDbXrecord
280
     1
102
MATERIAL
148
0.0
149
0.0
149
0.0
 93
        0
 94
      127
282
     0
 72
     0
 77
     0
171
     0
175
     0
179
     0
273
     0
  0
XRECORD
  5
24
102
{ACAD_REACTORS
330
22
102
}
330
22
100
AcDbXrecord
280
     1
270
     1
271
     1
  0
XRECORD
  5
23
102
{ACAD_REACTORS
330
22
102
}
330
22
100
AcDbXrecord
280
     1
270
     1
271
     1
  0
XRECORD
  5
27
102
{ACAD_REACTORS
330
22
102
}
330
22
100
AcDbXrecord
280
     1
270
     1
271
     1
  0
XRECORD
  5
26
102
{ACAD_REACTORS
330
22
102
}
330
22
100
AcDbXrecord
280
     1
270
     1
271
     1
  0
XRECORD
  5
28
102
{ACAD_REACTORS
330
22
102
}
330
22
100
AcDbXrecord
280
     1
270
     1
271
     1
  0
XRECORD
  5
25
102
{ACAD_REACTORS
330
22
102
}
330
22
100
AcDbXrecord
280
     1
270
     1
271
     1
  0
CELLSTYLEMAP
  5
875
102
{ACAD_REACTORS
330
84A
102
}
330
84A
100
AcDbCellStyleMap
 90
        3
300
CELLSTYLE
  1
TABLEFORMAT_BEGIN
 90
        5
170
     1
 91
        0
 92
    32768
 62
   257
 93
        1
300
CONTENTFORMAT
  1
CONTENTFORMAT_BEGIN
 90
        0
 91
        0
 92
      512
 93
        0
300

 40
0.0
140
1.0
 94
        5
 62
     0
340
5D
144
0.25
309
CONTENTFORMAT_END
171
     1
301
MARGIN
  1
CELLMARGIN_BEGIN
 40
0.06
 40
0.06
 40
0.06
 40
0.06
 40
0.18
 40
0.18
309
CELLMARGIN_END
 94
        6
 95
        1
302
GRIDFORMAT
  1
GRIDFORMAT_BEGIN
 90
        0
 91
        1
 62
     0
 92
       -2
340
0
 93
        0
 40
0.045
309
GRIDFORMAT_END
 95
        2
302
GRIDFORMAT
  1
GRIDFORMAT_BEGIN
 90
        0
 91
        1
 62
     0
 92
       -2
340
0
 93
        0
 40
0.045
309
GRIDFORMAT_END
 95
        4
302
GRIDFORMAT
  1
GRIDFORMAT_BEGIN
 90
        0
 91
        1
 62
     0
 92
       -2
340
0
 93
        0
 40
0.045
309
GRIDFORMAT_END
 95
        8
302
GRIDFORMAT
  1
GRIDFORMAT_BEGIN
 90
        0
 91
        1
 62
     0
 92
       -2
340
0
 93
        0
 40
0.045
309
GRIDFORMAT_END
 95
       16
302
GRIDFORMAT
  1
GRIDFORMAT_BEGIN
 90
        0
 91
        1
 62
     0
 92
       -2
340
0
 93
        0
 40
0.045
309
GRIDFORMAT_END
 95
       32
302
GRIDFORMAT
  1
GRIDFORMAT_BEGIN
 90
        0
 91
        1
 62
     0
 92
       -2
340
0
 93
        0
 40
0.045
309
GRIDFORMAT_END
309
TABLEFORMAT_END
  1
CELLSTYLE_BEGIN
 90
        1
 91
        1
300
_TITLE
309
CELLSTYLE_END
300
CELLSTYLE
  1
TABLEFORMAT_BEGIN
 90
        5
170
     1
 91
        0
 92
        0
 62
   257
 93
        1
300
CONTENTFORMAT
  1
CONTENTFORMAT_BEGIN
 90
        0
 91
        0
 92
      512
 93
        0
300

 40
0.0
140
1.0
 94
        5
 62
     0
340
5D
144
0.18
309
CONTENTFORMAT_END
171
     1
301
MARGIN
  1
CELLMARGIN_BEGIN
 40
0.06
 40
0.06
 40
0.06
 40
0.06
 40
0.18
 40
0.18
309
CELLMARGIN_END
 94
        6
 95
        1
302
GRIDFORMAT
  1
GRIDFORMAT_BEGIN
 90
        0
 91
        1
 62
     0
 92
       -2
340
0
 93
        0
 40
0.045
309
GRIDFORMAT_END
 95
        2
302
GRIDFORMAT
  1
GRIDFORMAT_BEGIN
 90
        0
 91
        1
 62
     0
 92
       -2
340
0
 93
        0
 40
0.045
309
GRIDFORMAT_END
 95
        4
302
GRIDFORMAT
  1
GRIDFORMAT_BEGIN
 90
        0
 91
        1
 62
     0
 92
       -2
340
0
 93
        0
 40
0.045
309
GRIDFORMAT_END
 95
        8
302
GRIDFORMAT
  1
GRIDFORMAT_BEGIN
 90
        0
 91
        1
 62
     0
 92
       -2
340
0
 93
        0
 40
0.045
309
GRIDFORMAT_END
 95
       16
302
GRIDFORMAT
  1
GRIDFORMAT_BEGIN
 90
        0
 91
        1
 62
     0
 92
       -2
340
0
 93
        0
 40
0.045
309
GRIDFORMAT_END
 95
       32
302
GRIDFORMAT
  1
GRIDFORMAT_BEGIN
 90
        0
 91
        1
 62
     0
 92
       -2
340
0
 93
        0
 40
0.045
309
GRIDFORMAT_END
309
TABLEFORMAT_END
  1
CELLSTYLE_BEGIN
 90
        2
 91
        1
300
_HEADER
309
CELLSTYLE_END
300
CELLSTYLE
  1
TABLEFORMAT_BEGIN
 90
        5
170
     1
 91
        0
 92
        0
 62
   257
 93
        1
300
CONTENTFORMAT
  1
CONTENTFORMAT_BEGIN
 90
        0
 91
        0
 92
      512
 93
        0
300

 40
0.0
140
1.0
 94
        2
 62
     0
340
5D
144
0.18
309
CONTENTFORMAT_END
171
     1
301
MARGIN
  1
CELLMARGIN_BEGIN
 40
0.06
 40
0.06
 40
0.06
 40
0.06
 40
0.18
 40
0.18
309
CELLMARGIN_END
 94
        6
 95
        1
302
GRIDFORMAT
  1
GRIDFORMAT_BEGIN
 90
        0
 91
        1
 62
     0
 92
       -2
340
0
 93
        0
 40
0.045
309
GRIDFORMAT_END
 95
        2
302
GRIDFORMAT
  1
GRIDFORMAT_BEGIN
 90
        0
 91
        1
 62
     0
 92
       -2
340
0
 93
        0
 40
0.045
309
GRIDFORMAT_END
 95
        4
302
GRIDFORMAT
  1
GRIDFORMAT_BEGIN
 90
        0
 91
        1
 62
     0
 92
       -2
340
0
 93
        0
 40
0.045
309
GRIDFORMAT_END
 95
        8
302
GRIDFORMAT
  1
GRIDFORMAT_BEGIN
 90
        0
 91
        1
 62
     0
 92
       -2
340
0
 93
        0
 40
0.045
309
GRIDFORMAT_END
 95
       16
302
GRIDFORMAT
  1
GRIDFORMAT_BEGIN
 90
        0
 91
        1
 62
     0
 92
       -2
340
0
 93
        0
 40
0.045
309
GRIDFORMAT_END
 95
       32
302
GRIDFORMAT
  1
GRIDFORMAT_BEGIN
 90
        0
 91
        1
 62
     0
 92
       -2
340
0
 93
        0
 40
0.045
309
GRIDFORMAT_END
309
TABLEFORMAT_END
  1
CELLSTYLE_BEGIN
 90
        3
 91
        2
300
_DATA
309
CELLSTYLE_END
  0
XRECORD
  5
877
102
{ACAD_REACTORS
330
84A
102
}
330
84A
100
AcDbXrecord
280
     1
102
ACAD_ROUNDTRIP_PRE2007_TABLESTYLE
 90
      512
 91
        0
  1

 92
      512
 93
        0
  2

 94
      512
 95
        0
  3

  0
ENDSEC
  0
EOF
